Cifra Club

Aprenda

Heaven Beside You

Alice In Chains

Cifra: Principal (violão e guitarra)
tom: A
b:Bend
/ou\:Slide
v:Vibrato
h:Hammer-on

Acordes:

   Aadd9  G6    C   Badd4
eb|--0-----0----0-----0-------
Bb|--0-----0----0-----0-------
Gb|--6-----4----9-----8-------
Db|--7-----5----10----9-------
Ab|--7-----5----10----9-------
Eb|--5-----3----8-----7-------

Intro/verso:

Violão 1:

eb|--------------------------------
Bb|--------------------------------
Gb|--------------------------------
Db|---5b--------0------------------   x10
Ab|-------7---7---7--------7-------
Eb|-0-------5-------5/3-3----------

Violão 2:

eb|-9-10\-7/9-|--8\-----
Bb|-----------|--9\-----
Gb|-7-9\--5/7-|---------
Db|-----------|---------
Ab|-----------|---------
Eb|-----------|---------
       x4         x4

Be what you wanna be
See what you came to see
Been what you wanna be
I don't like what I see

Refrão:

Aadd9      G6             C
  Like the coldest winter chill
            Badd4
  Heaven beside you... hell within
Aadd9      G6             C
  Like the coldest winter chill
            Badd4
  Heaven beside you... hell within
Aadd9      G6             C
  Like the coldest winter will
            Badd4
  Heaven beside you... hell within
Aadd9     G6                C                Badd4
  And you think you have it still, heaven inside you

eb|----------------------------------
Bb|----------------------------------
Gb|---0---0---0---0---0---0---0---0--
Db|----------------------------------   x2
Ab|--3-3-3-3-4-4-4-4-5-5-5-5-6-6-6-6-
Eb|-4---4---5---5---6---6---7---7----

So there's problems in your life
That's fucked up, and I'm not blind
I'm just see through faded, super jaded
And out of my mind

eb|-0-0-0-------------------------
Bb|-0-0-0-------------------------
Gb|-1-1-1-------------------------
Db|-2-2-2--2v----------0--0-------   x4
Ab|-2-2-2-----2-1v----2--1--------
Eb|-0-0-0------------3--2---------

Vilolão 1:

eb|----------------------------------
Bb|----------------------------------
Gb|----------------------------------
Db|---5b--------0--------------------   x8
Ab|-------7---7---7--------7---------
Eb|-0-------5-------5/3-3------------

Violão 2:

eb|-9-10\-7/9-|--8\-----
Bb|-----------|--9\-----
Gb|-7-9\--5/7-|---------
Db|-----------|---------
Ab|-----------|---------
Eb|-----------|---------
       x4         x4

Do what you wanna do
Go out and seek your truth
When I'm down and blue
Rather be me than you

Aadd9      G6             C
  Like the coldest winter chill
            Badd4
  Heaven beside you... hell within
Aadd9      G6             C
  Like the coldest winter chill
            Badd4
  Heaven beside you... hell within
Aadd9      G6             C
  Like the coldest winter will
            Badd4
  Heaven beside you... hell within
Aadd9     G6              C                Badd4
  And you wish you had it still, heaven inside you

eb|----------------------------------
Bb|----------------------------------
Gb|---0---0---0---0---0---0---0---0--
Db|----------------------------------   x2
Ab|--3-3-3-3-4-4-4-4-5-5-5-5-6-6-6-6-
Eb|-4---4---5---5---6---6---7---7----

So there's problems in your life
That's fucked up, and I'm not blind
I'm just see through faded, super jaded
And out of my mind

Violão 1:

eb|-0-0-0-------------------------
Bb|-0-0-0-------------------------
Gb|-1-1-1-------------------------
Db|-2-2-2--2v----------0--0-------   x8
Ab|-2-2-2-----2-1v----2--1--------
Eb|-0-0-0------------3--2---------

Solo:

Violão 2:

eb|----------------------------------------------
Bb|----------------------------------------------
Gb|-14v-12-14-12----12--------12-14-14^(16)-(16)-
Db|---------------14--14-12h14-------------------
Ab|----------------------------------------------
Eb|----------------------------------------------

eb|-------------------------------------------------
Bb|-------------15b-13-15/16/15-13-15-13---12-------
Gb|(16)-(16)-12--------------------------14--14-14b-
Db|-------------------------------------------------
Ab|-------------------------------------------------
Eb|-------------------------------------------------

eb|------------------------------
Bb|------------------------------
Gb|------------------------------
Db|-16/14-12---------------------
Ab|----------14-12/10-9-10-10----
Eb|------------------------------

eb|-0------------0-----------------0--------
Bb|--0------------0-----------------0-------
Gb|---15--15--15---15--15--12--12----15--15-
Db|-----14--14-------14--14--14--14----14---
Ab|-----------------------------------------
Eb|-----------------------------------------

eb|-0-------------0------------0--------------
Bb|--0-------------0------------0-------------
Gb|---15--15--12----15--15--15---15--15--12---
Db|-----14--14--14----14--14-------14--14--14-
Ab|-------------------------------------------
Eb|-------------------------------------------

eb|-0------------0------------
Bb|--0------------0-----------
Gb|---15--15--15---15--15--12-
Db|-----14--14-------14--14---
Ab|---------------------------
Eb|---------------------------

Aadd9      G6             C
  Like the coldest winter chill
            Badd4
  Heaven beside you... hell within
Aadd9      G6             C
  Like the coldest winter chill
            Badd4
  Heaven beside you... hell within
Aadd9      G6             C
  Like the coldest winter will
            Badd4
  Heaven beside you... hell within
Aadd9     G6               C                Badd4
  And you know you have it still, heaven inside you

eb|----------------------------------
Bb|----------------------------------
Gb|---0---0---0---0---0---0---0---0--
Db|----------------------------------   x2
Ab|--3-3-3-3-4-4-4-4-5-5-5-5-6-6-6-6-
Eb|-4---4---5---5---6---6---7---7----

So there's problems in your life
That's fucked up, sure you're not blind
You're just see through faded, overrated
And out of your mind

Violão 1:

eb|-0-0-0-------------------------
Bb|-0-0-0-------------------------
Gb|-1-1-1-------------------------
Db|-2-2-2--2v----------0--0-------   x4
Ab|-2-2-2-----2-1v----2--1--------
Eb|-0-0-0------------3--2---------

Violão 2:

eb|-0------------0-------------0------------
Bb|--0------------0-------------0-----------
Gb|---15--15--15---15--15--12----15--15--15-
Db|-----14--14-------14--14--14----14--14---
Ab|-----------------------------------------
Eb|-----------------------------------------

eb|-0-------------0------------0------------
Bb|--0-------------0------------0-----------
Gb|---15--15--12----15--15--15---15--15--12-
Db|-----14--14--14----14--14-------14--14---
Ab|-----------------------------------------
Eb|-----------------------------------------
Composição de Jerry Cantrell / Mike Inez
Colaboração e revisão:
  • Marcio Silva
58.638 exibições
    • ½ Tom
    • A
    • Bb
    • B
    • C
    • Db
    • D
    • Eb
    • E
    • F
    • F#
    • G
    • Ab
  • Adicionar à lista

    0 comentários

    Ver todos os comentários

    Conseguiu tocar?

    12 Tocaram 0 Ainda não

    Grave um vídeo tocando Heaven Beside You e nos envie!

    00:00 / 00:00
    outros vídeos desta música
    repetir qualidade Automático
    Outros vídeos desta música
    00:00 / 00:00
    Automático

    Cifra Club Pro

    Aproveite o Cifra Club com benefícios exclusivos e sem anúncios
    Cifra Club Pro
    Aproveite o Cifra Club com benefícios exclusivos e sem anúncios
    OK