Cifra Club

Heaven Beside You

Alice In Chains

Tab de baixo: Principal
Selo Cifra Club: esta cifra foi revisada para atender aos critérios oficiais da nossa Equipe de Qualidade.
Tabbed By : douglaz

Tuning: Half step down


Hey this is my first (and maybe last, who knows?) tab so be nice, and any
suggestions/comments/questions/etc don’t hesitate. Cheers. I don’t know if
this is exactly right, because the bass on this song is really muddy, but
its definitely close, and it sounds good when I play it so hopefully it’ll
work for you as well.

There’s about 4 bars of guitar intro before the bass comes in for the verse:

Verse
 | 1 + 2 + 3 + 4 + | 1 + 2 + 3 + 4 + |
G|-----------------|-----------------|
D|-----------------|-----------------|  
A|---------5-7-----|-----------------|
E|-0-0-0-0-----6-5-|---5-5-5-5/3-----|

Chorus part 1 (like the coldest winter chill bit)

 | 1 + 2 + 3 + 4 + | 1 + 2 + 3 + 4 + | 1 + 2 + 3 + 4 + | 1 + 2 + 3 + 4 + |
G|-----------------|-----------------|-----------------|-----------------|
D|-----------------|-----------------|-----------------|-----------------|
A|-0-0-0-0-0-0-0-0-|-----------------|-3-3-3-3-3-3-3-3-|-2-2-2-2-2-2-2-2-|
E|-----------------|-3-3-3-3-3-3-3-3-|-----------------|-----------------|

Chorus part 2 (so there’s problems bit)

 | 1 + 2 + 3 + 4 + | 1 + 2 + 3 + 4 + | 1 + 2 + 3 + 4 + | 1 + 2 + 3 + 4 + |
G|-----------------|-----------------|-----------------|-----------------|
D|-----------------|-----------------|-----------------|-----------------|
A|-----------------|-----------------|-----------------|-----------------|
E|-4-4-4-4-4-4-4-4-|-5-5-5-5-5-5-5-5-|-6-6-6-6-6-6-6-6-|-7-7-7-7-7-7-7-7-|

Chorus part 3 

 | 1 + 2 + 3 + 4 + | 1 + 2 + 3 + 4 + |
G|-----------------|-----------------|
D|-------2---------|---------1-----0-|
A|-------------2---|-------2-----1---|
E|-0---------------|-----3-----2-----|

Song structure

Verse    x10
Chorus 1 x4
Chorus 2 x2
Chorus 3 x4
Verse    x8
Chorus 1 x4
Chorus 2 x2
Chorus 3 x8
Chorus 1 x4
Chorus 2 x2
Chorus 3 x4

End

That’s all folk, hope you like it

TaTa.

 
Outros vídeos desta música
    2.718 exibições

    Afinação da cifra

    Afinador online

    0 comentários

    Ver todos os comentários

    Entre para o Cifra Club PRO

    Tenha acesso a benefícios exclusivos no App e no Site

    • Chega de anúncios

    • Badges exclusivas

    • Mais recursos no app do Afinador

    • Atendimento Prioritário

    • Aumente seu limite de lista

    • Ajude a produzir mais conteúdo

    Cifra Club Pro

    Aproveite o Cifra Club com benefícios exclusivos e sem anúncios
    Cifra Club Pro
    Aproveite o Cifra Club com benefícios exclusivos e sem anúncios
    Ops (: Contenido disponible sólo en portugués.
    OK