Cifra Club

Chemical Addiction

Alice In Chains

Cifra: Principal (violão e guitarra)
Selo Cifra Club: esta cifra foi revisada para atender aos critérios oficiais da nossa Equipe de Qualidade.
tom: C#m
E|----------------------------|--------------------------|
B|-------14\12----12----------|-------10\8-----8---------|
G|----------------------------|--------------------------| play 2x
D|----14-------12-------------|----11-------9------------|
A|----------------------------|-0------------------------|
E|-0--------------------------|--------------------------|
      Keep both fingers in position when sliding
   


[Verse]

E|--------------------------------|------------------------------|
B|-------14\12----12----12--------|-------10\8-----8-------------|
G|--------------------------------|-------------------7--5h6-----| play 4x
D|----14-------12----11h12--14~---|----11-------9-----5--5-------|
A|--------------------------------|-0-----------------0--0-------|
E|-0------------------------------|------------------------------|



[Prechorus]

E|--------------------------------|------------------------------------|
B|--------------------8---7\5-----|---------------------5--------------|
G|-----2----2---------------------|---------------------------7\5------|
D|-----2----2------/9---7---------|-----2----2-------4-----------------|
A|-3bb-0----0----0----------------|-----2----2-------------------------|
E|--------------------------------|-3bb-0----0----0--------------------|

E|--------------------------------|------------------------------------|
B|--------------------8---7\5-----|------------------------------------|
G|-----2----2---------------------|------------------------------------|
D|-----2----2------/9---7---------|-----2----2----2--------------------|
A|-3bb-0----0----0----------------|-----2----2----2---------0--3--0----|
E|--------------------------------|-3bb-0----0----0---0--3-------------|

    repeat Prechorus (8 bars total)


[Chorus]

   Beats shown above:
    1       2       3        4
E|----------------------------------|
B|----------------------------------|
G|----------------------------------|
D|----------------------------------| play 4x before lyrics start
A|---------------5------------------|
E|-0---3---5h6h7-----7p6p5--6p5p3---|

    1       2       3        4
E|----------------------------------|----------------------------------|
B|----------------------------------|----------------------------------|
G|----------------------------------|----------------------------------|
D|----------------------------------|----------------------------------|
A|---------------5------------------|---------------5--------------7---|
E|-0---3---5h6h7-----7p6p5--6p5p3---|-0---3---5h6h7-----7p6p5--7p5-----|

E|----------------------------------|----------------------------------|
B|----------------------------------|----------------------------------|
G|----------------------------------|----------------------------------|
D|----------------------------------|----------------------------------|
A|---------------5------------------|---------------5------------------|
E|-0---3---5h6h7-----7p6p5--6p5p3---|-0---3---5h6h7-----7p6p5--7p5-0---|


  Harmonized Vocals Part:

E|----------------------------------|----------------------------------|
B|----------------------------------|----------------------------------|
G|----------------------------------|----------------------------------| play 4x, but rest
D|----------------------------------|----------------------------------| the last 2 beats
A|---------------5------------------|---------------5--------------7---|
E|-0---3---5h6h7-----7p6p5--6p5p3---|-0---3---5h6h7-----7p6p5--7p5-----|



[PreVerse]

E|----------------------------|--------------------------|
B|-------14\12----12----------|-------10\8-----8---------|
G|----------------------------|--------------------------| play 2x
D|----14-------12-------------|----11-------9------------|
A|----------------------------|-0------------------------|
E|-0--------------------------|--------------------------|



[Verse 2]

E|--------------------------------|------------------------------|
B|-------14\12----12----12--------|-------10\8-----8-------------|
G|--------------------------------|-------------------7--5h6-----| play 4x
D|----14-------12----11h12--14~---|----11-------9-----5--5-------|
A|--------------------------------|-0-----------------0--0-------|
E|-0------------------------------|------------------------------|



[Prechorus 2]

    (begins at 2:19)
E|--------------------------------|------------------------------------|
B|--------------------8---7\5-----|---------------------5--------------|
G|-----2----2---------------------|---------------------------7\5------|
D|-----2----2------/9---7---------|-----2----2-------4-----------------|
A|-3bb-0----0----0----------------|-----2----2-------------------------|
E|--------------------------------|-3bb-0----0----0--------------------|

E|--------------------------------|------------------------------------|
B|--------------------8---7\5-----|------------------------------------|
G|-----2----2---------------------|------------------------------------|
D|-----2----2------/9---7---------|-----2----2----2--------------------|
A|-3bb-0----0----0----------------|-----2----2----2---------0--3--0----|
E|--------------------------------|-3bb-0----0----0---0--3-------------|

    repeat Prechorus (8 bars total)


[Chorus 2]

   Beats shown above:
    1       2       3        4
E|----------------------------------|
B|----------------------------------|
G|----------------------------------|
D|----------------------------------| play 4x before lyrics start
A|---------------5------------------|
E|-0---3---5h6h7-----7p6p5--6p5p3---|

    1       2       3        4
E|----------------------------------|----------------------------------|
B|----------------------------------|----------------------------------|
G|----------------------------------|----------------------------------|
D|----------------------------------|----------------------------------|
A|---------------5------------------|---------------5--------------7---|
E|-0---3---5h6h7-----7p6p5--6p5p3---|-0---3---5h6h7-----7p6p5--7p5-----|

E|----------------------------------|----------------------------------|
B|----------------------------------|----------------------------------|
G|----------------------------------|----------------------------------|
D|----------------------------------|----------------------------------|
A|---------------5------------------|---------------5------------------|
E|-0---3---5h6h7-----7p6p5--6p5p3---|-0---3---5h6h7-----7p6p5--7p5-0---|


  Harmonized Vocals Part:

E|----------------------------------|----------------------------------|
B|----------------------------------|----------------------------------|
G|----------------------------------|----------------------------------| play 4x, but rest
D|----------------------------------|----------------------------------| the last 2 beats
A|---------------5------------------|---------------5--------------7---|
E|-0---3---5h6h7-----7p6p5--6p5p3---|-0---3---5h6h7-----7p6p5--7p5-----|



[Bridge]

E|----------------------------|--------------------------|
B|-------14\12----12~---------|-------10\8-----8---------|
G|----------------------------|--------------------------| play 2x
D|----14-------12-------------|----11-------9------------|
A|----------------------------|-0------------------------|
E|-0--------------------------|--------------------------|



[Solo]
    w/ wah

E|-15br17--12-------12---------------------------|---------------------------------------------|
B|------------15b17-------15br17-12-------12-----|---------------------------------------------|
G|----------------------------------14b16----14--|----------12--14br15p12---12-----------------|
D|-----------------------------------------------|-12-14-----------------14---14--12---14-14~--|
A|-----------------------------------------------|---------------------------------------------|
E|-----------------------------------------------|---------------------------------------------|

E|-15-12----------------------------|------------------------------------|
B|----------------------------------|---------12---x-x---------12---x-x--|
G|-------14br15----12--13-----------|-12-13---13---x-x-12-13---13---x-x--|
D|-----------------12--12-14~-------|-12-12--------x-x-12-12--------x-x--|
A|----------------------------------|------------------------------------|
E|----------------------------------|------------------------------------|

E|--9---x-7---x---------------------|------------------------------|----------------------------------|
B|-10---x-8---x-2br3---0------------|------------------------------|-12b13----------------------------|
G|--------------2br3---0-------x-x--|------------------------------|---------14---12b13---------------|
D|-------------------------2---x-x--|-------5---7br8-----5~---x-x--|----------------------14--12h14---|
A|----------------------------------|-5h6h7-----------7-------x-x--|----------------------------------|
E|----------------------------------|------------------------------|----------------------------------|

E|---------------------------|
B|-------12------------------|
G|-------14b16~--------------| last bend adds dissonance in vibrato
D|-(14~)---------------------|
A|---------------------------|
E|---------------------------|

    Prechorus plays behind solo
E|-12-------------------------------------------------------|----------------------------------------12|
B|---15-13-12-15-13-12--------------------------------------|-------------------------------------15---|
G|----------------------12----12~----------------12---------|-14b16__16_16_16_16_16_16r14-14~~~--------|
D|-------------------------14------14p12--14p12-----14~-----|------------------------------------------|
A|----------------------------------------------------------|------------------------------------------|
E|----------------------------------------------------------|------------------------------------------|

E|-12----------------------------------------------------|--------------------15~~~--------|
B|----15p12-12-------------------------------------------|---------------------------------|
G|------------14p12-15p14p12-14~---------------12---14---|-14b16-----14b16______~~~--------|
D|-------------------------------------------------------|---------------------------------|
A|-------------------------------------------------------|---------------------------------|
E|-------------------------------------------------------|---------------------------------|



Continue Prechorus riff out of solo (played 2x) 

E|--------------------------------|------------------------------------|
B|--------------------8---7\5-----|---------------------5--------------|
G|-----2----2---------------------|---------------------------7\5------|
D|-----2----2------/9---7---------|-----2----2-------4-----------------|
A|-3bb-0----0----0----------------|-----2----2-------------------------|
E|--------------------------------|-3bb-0----0----0--------------------|

E|--------------------------------|------------------------------------|
B|--------------------8---7\5-----|------------------------------------|
G|-----2----2---------------------|------------------------------------|
D|-----2----2------/9---7---------|-----2----2----2--------------------|
A|-3bb-0----0----0----------------|-----2----2----2---------0--3--0----|
E|--------------------------------|-3bb-0----0----0---0--3-------------|


[Outro]

E|----------------------------|--------------------------|
B|-------14\12----12----------|-------10\8-----8---------|
G|----------------------------|--------------------------| play 2x
D|----14-------12-------------|----11-------9------------|
A|----------------------------|-0------------------------|
E|-0--------------------------|--------------------------|



************************************

| x   Dead note
| (n) Ghost note, or held from last bar
| h   Hammer-on
| p   Pull-off
| b   Bend
| br  Bend then release
| bb  slight blues bend (not to next note but half semitone)
| /   Slide up
| \   Slide down
| ~   Vibrato
Outros vídeos desta música
    6 exibições
      • ½ Tom
      • Am
      • Bbm
      • Bm
      • Cm
      • C#m
      • Dm
      • Ebm
      • Em
      • Fm
      • F#m
      • Gm
      • G#m
    • Adicionar à lista

    Afinação da cifra

    Afinador online

      0 comentários

      Ver todos os comentários

      Entre para o Cifra Club PRO

      Tenha acesso a benefícios exclusivos no App e no Site

      • Chega de anúncios

      • Mais recursos no app do Afinador

      • Atendimento Prioritário

      • Aumente seu limite de lista

      • Ajude a produzir mais conteúdo

      Cifra Club Pro

      Aproveite o Cifra Club com benefícios exclusivos e sem anúncios
      Cifra Club Pro
      Aproveite o Cifra Club com benefícios exclusivos e sem anúncios
      OK