Cifra Club

Deaf Ears Blind Eyes

Alice In Chains

Cifra: Principal (violão e guitarra)
Selo Cifra Club: esta cifra foi revisada para atender aos critérios oficiais da nossa Equipe de Qualidade.
tom: G#m
    G#5                                          G#5                                                 
    Gtr 1     1                                            1                                       
E|------------------------------------------------------------------------------------------|
B|------------------------------------------------------------------------------------------|
G|-8--8-8-8-8^-(8)-7---------------------6------8--8-8-8-8^-(8)-7---------------------6-----|
D|------------------------8-6-8-9----8-6---9---------------------------8-6-8-9----8-6---9---|
A|------------------------------------------------------------------------------------------|
E|------------------------------------------------------------------------------------------|
  | Gtr 2     1                                            1                                   
E|------------------------------------------------------------------------------------------|
B|------------------------------------------------------------------------------------------|
G|------------------------------------------------------------------------------------------|
D|-9--9-9-9-9^-(9)-8---------------------6------9--9-9-9-9^-(9)-8---------------------6-----| all staves x2
A|------------------------8-6-8-9----8-6---9---------------------------8-6-8-9----8-6---9---|
E|------------------------------------------------------------------------------------------|
  | Gtrs 3 & 4                                                                                 
E|------------------------------------------------------------------------------------------|
B|------------------------------------------------------------------------------------------|
G|------------------------------------------------------------------------------------------|
D|------------------------------------------------------------------------------------------|
A|--------6-4----------------------------4-------------6-4----------------------------4-----|
E|-4--4-4----------6---6------6----6-6-4---7----4--4-4----------6---6------6----6-6-4---7---|
  
 
[Verse 1]
      G#5
 
E|--------------------------------------------------------|
B|--------------------------------------------------------|
G|-----------------------------------------------6--------|
D|-------------------------8--6--8--9------8--6-----9-----|
A|--------------------------------------------------------|
E|--------------------------------------------------------|
  |                                                         
E|--------------------------------------------------------|
B|--------------------------------------------------------|
G|--------------------------------------------------------|
D|-----------------------------------------------6--------| all staves x4
A|-------------------------8--6--8--9------8--6-----9-----|
E|--------------------------------------------------------|
  |                                                           
E|--------------------------------------------------------|
B|--------------------------------------------------------|
G|--------------------------------------------------------|
D|--------------------------------------------------------|
A|------------6--4-------------------------------4--------|
E|--4---4--4--------6---6--------6------6--6--4-----7-----|
 
 
[Chorus]
   Esus2   Bb                        B5 Esus2   Bb                      B5
      Gtr I (quieter in mix)
              ~~~~~~~~~~~~~~~                    ~~~~~~~~~~~~~~~
E|--7------------------------------------7---------------------------------|
B|--7------------------------------------7---------------------------------|
G|--9------------------------------------9---------------------------------|
D|--9-------8----------------------------9------8--------------------------|
A|-------------------------------------------------------------------------|
E|-------------------------------------------------------------------------|
E|----| Gtrs 3 & 4                    -  ---                                  all staves x2
B|-------------------------------------------------------------------------|
G|-------------------------------------------------------------------------|
D|----------7-----------------------------------7--------------------------|
A|--2-------8----------------------8-9---2------8---------------------8-9--|
E|--2-------8----------------------8-9---2------8---------------------8-9--|
E|--0-------6--------------------0-6-7---0------6-------------------0-6-7--|
 
 
[Pre-Verse]
    G#5                                          G#5                                                 
    Gtr 1     1                                            1                                       
E|------------------------------------------------------------------------------------------|
B|------------------------------------------------------------------------------------------|
G|-8--8-8-8-8^-(8)-7---------------------6------8--8-8-8-8^-(8)-7---------------------6-----|
D|------------------------8-6-8-9----8-6---9---------------------------8-6-8-9----8-6---9---|
A|------------------------------------------------------------------------------------------|
E|------------------------------------------------------------------------------------------|
  | Gtr 2     1                                            1                                   
E|------------------------------------------------------------------------------------------|
B|------------------------------------------------------------------------------------------|
G|------------------------------------------------------------------------------------------|
D|-9--9-9-9-9^-(9)-8---------------------6------9--9-9-9-9^-(9)-8---------------------6-----|
A|------------------------8-6-8-9----8-6---9---------------------------8-6-8-9----8-6---9---|
E|------------------------------------------------------------------------------------------|
  | Gtrs 3 & 4                                                                                 
E|------------------------------------------------------------------------------------------|
B|------------------------------------------------------------------------------------------|
G|------------------------------------------------------------------------------------------|
D|------------------------------------------------------------------------------------------|
A|--------6-4----------------------------4-------------6-4----------------------------4-----|
E|-4--4-4----------6---6------6----6-6-4---7----4--4-4----------6---6------6----6-6-4---7---|
  
 
 
 
[Verse 2]
      G#5
 
E|--------------------------------------------------------|
B|--------------------------------------------------------|
G|-----------------------------------------------6--------|
D|-------------------------8--6--8--9------8--6-----9-----|
A|--------------------------------------------------------|
E|--------------------------------------------------------|
  |                                                         
E|--------------------------------------------------------|
B|--------------------------------------------------------|
G|--------------------------------------------------------|
D|-----------------------------------------------6--------| all staves x4
A|-------------------------8--6--8--9------8--6-----9-----|
E|--------------------------------------------------------|
  |                                                           
E|--------------------------------------------------------|
B|--------------------------------------------------------|
G|--------------------------------------------------------|
D|--------------------------------------------------------|
A|------------6--4-------------------------------4--------|
E|--4---4--4--------6---6--------6------6--6--4-----7-----|
 
 
    G#5                                          G#5                                                 
    Gtr 1     1                                            1                                       
E|------------------------------------------------------------------------------------------|
B|------------------------------------------------------------------------------------------|
G|-8--8-8-8-8^-(8)-7---------------------6------8--8-8-8-8^-(8)-7---------------------6-----|
D|------------------------8-6-8-9----8-6---9---------------------------8-6-8-9----8-6---9---|
A|------------------------------------------------------------------------------------------|
E|------------------------------------------------------------------------------------------|
  | Gtr 2     1                                            1                                   
E|------------------------------------------------------------------------------------------|
B|------------------------------------------------------------------------------------------|
G|------------------------------------------------------------------------------------------|
D|-9--9-9-9-9^-(9)-8---------------------6------9--9-9-9-9^-(9)-8---------------------6-----|
A|------------------------8-6-8-9----8-6---9---------------------------8-6-8-9----8-6---9---|
E|------------------------------------------------------------------------------------------|
  | Gtrs 3 & 4                                                                                 
E|------------------------------------------------------------------------------------------|
B|------------------------------------------------------------------------------------------|
G|------------------------------------------------------------------------------------------|
D|------------------------------------------------------------------------------------------|
A|--------6-4----------------------------4-------------6-4----------------------------4-----|
E|-4--4-4----------6---6------6----6-6-4---7----4--4-4----------6---6------6----6-6-4---7---|
  
 
 
[Chorus]
   Esus2   Bb                        B5 Esus2   Bb                      B5
      Gtr I (quieter in mix)
              ~~~~~~~~~~~~~~~                    ~~~~~~~~~~~~~~~
E|--7------------------------------------7---------------------------------|
B|--7------------------------------------7---------------------------------|
G|--9------------------------------------9---------------------------------|
D|--9-------8----------------------------9------8--------------------------|
A|-------------------------------------------------------------------------|
E|-------------------------------------------------------------------------|
  | Gtrs 3 & 4                                                                all staves x2
E|-------------------------------------------------------------------------|
B|-------------------------------------------------------------------------|
G|----------7-----------------------------------7--------------------------|
D|--2-------8----------------------8-9---2------8---------------------8-9--|
A|--2-------8----------------------8-9---2------8---------------------8-9--|
E|--0-------6--------------------0-6-7---0------6-------------------0-6-7--|
 
 
[Guitar Solo]
    Dbm                 Eb                  
    Gtr I                                    
     ~~~~~~~~~~~~~~~~~~~~~~~~~~~~~~~~~~~~~~   grad. bend-----½                              1     
E|------------------------------------------------------------------------------------------------|
B|-----------------------------------------16^------------------16-(16)----11_12-14------14^------|
G|---------------------15-----------------------------------------------15------------------------|
D|-13---------------------------------------------------------------------------------------------|
A|------------------------------------------------------------------------------------------------|
E|------------------------------------------------------------------------------------------------|
  | Gtr V (let ring throughout)                                                                      
E|-11----11-11---------11----11-11---------11-----11-11---------11---------11----11---------------|
B|----------12------------11----11-------------------12-----------------11-------11---------------|
G|----13---------------------------------------13-------------------------------------------------|
D|------------------------------------------------------------------------------------------------|
A|------------------------------------------------------------------------------------------------|
E|------------------------------------------------------------------------------------------------|
 
 
    Dbm                        Eb
                grad. bend------1                    1
E|----------------------------------------------------------------------|
B|-12_14----------------------------------------------------------------|
G|-------13-(13)^---------------------------(13)--13^--(13)-11----------|
D|-------------------------------------------------------------13-12-11-|
A|----------------------------------------------------------------------|
E|----------------------------------------------------------------------|
  |
E|-11--------11----11----------11-----11-11-----------------------------|
B|-----------------12--------------11----11-----------------------------|
G|-------13-------------------------------------------------------------|
D|----------------------------------------------------------------------|
A|----------------------------------------------------------------------|
E|----------------------------------------------------------------------|
 
 
    Dbm                       Eb
                 ½     ½                    1
E|----------------------------------------------------------------|
B|----------------------------------------------------------------|
G|----------------------------------------------------------------|
D|--9----11-9-13^---13^-(13)-11-13-11----11^----8-9--8------------|
A|------------------------------------14---------------11-9-11----|
E|----------------------------------------------------------------|
  |
E|-11----11---11----11-------------11----11-----------------------|
B|------------12-------------11----------11---------14------------|
G|----13--------------------------------------------13------------|
D|----------------------------------------------------------------|
A|----------------------------------------------------------------|
E|----------------------------------------------------------------|
 
 
[Bridge/Guitar Solo]
           Eb5           B5              Eb5                    B5                        
      1      ~~~~~~~~~~~~~~~~~~~~~~       1        ~~~~~~~         grad. bend--1            
E|-------------------------------------------------------------------------------------|
B|-------------------------------------------------------------------------------------|
G|-------------------------------------------------------------------------------------|
D|--------------------------------------6^--(6)_4-------------------4^-----------(4)---|
A|-11^--------------------------------------------6------------4_6---------------------|
E|-------------------------------------------------------------------------------------|
  |          ~~~~                                                                           
E|-^14---------------------------------------------------------------------------------|
B|-^16---------------------------------------------------------------------------------|
G|-^18---------------------------------------------------------------------------------|
D|-------------------------------------------------------------------------------------|
A|-------------------------------------------------------------------------------------|
E|-------------------------------------------------------------------------------------|
  | Gtrs III, IV                                                                              
E|-------------------------------------------------------------------------------------|
B|-------------------------------------------------------------------------------------|
G|-------------------------------------------------------------------------------------|
D|--8-----------------------------------8----------------------------------------------|
A|--6---------------9-------------------6----------------------9-----------------------|
E|------------------7------------------------------------------7-----------------------|
 
 
    Eb5             B5                Eb5           B5                           
     1                   ~~~     ½        ~~~~~~~~~~~~~~~~~~            1       
E|-------------------------------------------------------------------------|
B|-------------------------------------------------------------------------|
G|-6^-----------------4--------3^----(3)-----------------------------------|
D|----------------------------------------------------------------4-6-6^---|
A|---------------------------------------6------------------4-4-6----------|
E|-------------------------------------------------------------------------|
  |                                                                          
E|-------------------------------------------------------------------------|
B|-------------------------------------------------------------------------|
G|-------------------------------------------------------------------------|
D|-8----------------------------------8------------------------------------|
A|-6---------------9------------------6---------------9--------------------|
E|-----------------7----------------------------------7--------------------|
 
  
 
[Pre-Verse]
    G#5                                          G#5                                                 
    Gtr 1     1                                            1                                       
E|------------------------------------------------------------------------------------------|
B|------------------------------------------------------------------------------------------|
G|-8--8-8-8-8^-(8)-7---------------------6------8--8-8-8-8^-(8)-7---------------------6-----|
D|------------------------8-6-8-9----8-6---9---------------------------8-6-8-9----8-6---9---|
A|------------------------------------------------------------------------------------------|
E|------------------------------------------------------------------------------------------|
  | Gtr 2     1                                            1                                   
E|------------------------------------------------------------------------------------------|
B|------------------------------------------------------------------------------------------|
G|------------------------------------------------------------------------------------------|
D|-9--9-9-9-9^-(9)-8---------------------6------9--9-9-9-9^-(9)-8---------------------6-----|
A|------------------------8-6-8-9----8-6---9---------------------------8-6-8-9----8-6---9---|
E|------------------------------------------------------------------------------------------|
  | Gtrs 3 & 4                                                                                 
E|------------------------------------------------------------------------------------------|
B|------------------------------------------------------------------------------------------|
G|------------------------------------------------------------------------------------------|
D|------------------------------------------------------------------------------------------|
A|--------6-4----------------------------4-------------6-4----------------------------4-----|
E|-4--4-4----------6---6------6----6-6-4---7----4--4-4----------6---6------6----6-6-4---7---|
 
 
[Verse 2]
      G#5
 
E|--------------------------------------------------------|
B|--------------------------------------------------------|
G|-----------------------------------------------6--------|
D|-------------------------8--6--8--9------8--6-----9-----|
A|--------------------------------------------------------|
E|--------------------------------------------------------|
  |                                                         
E|--------------------------------------------------------|
B|--------------------------------------------------------|
G|--------------------------------------------------------|
D|-----------------------------------------------6--------| all staves x2
A|-------------------------8--6--8--9------8--6-----9-----|
E|--------------------------------------------------------|
  |                                                           
E|--------------------------------------------------------|
B|--------------------------------------------------------|
G|--------------------------------------------------------|
D|--------------------------------------------------------|
A|------------6--4-------------------------------4--------|
E|--4---4--4--------6---6--------6------6--6--4-----7-----|
 
 
    G#5                                          G#5                                                 
    Gtr 1     1                                            1                                       
E|------------------------------------------------------------------------------------------|
B|------------------------------------------------------------------------------------------|
G|-8--8-8-8-8^-(8)-7---------------------6------8--8-8-8-8^-(8)-7---------------------6-----|
D|------------------------8-6-8-9----8-6---9---------------------------8-6-8-9----8-6---9---|
A|------------------------------------------------------------------------------------------|
E|------------------------------------------------------------------------------------------|
  | Gtr 2     1                                            1                                   
E|------------------------------------------------------------------------------------------|
B|------------------------------------------------------------------------------------------|
G|------------------------------------------------------------------------------------------|
D|-9--9-9-9-9^-(9)-8---------------------6------9--9-9-9-9^-(9)-8---------------------6-----|
A|------------------------8-6-8-9----8-6---9---------------------------8-6-8-9----8-6---9---|
E|------------------------------------------------------------------------------------------|
  | Gtrs 3 & 4                                                                                 
E|------------------------------------------------------------------------------------------|
B|------------------------------------------------------------------------------------------|
G|------------------------------------------------------------------------------------------|
D|------------------------------------------------------------------------------------------|
A|--------6-4----------------------------4-------------6-4----------------------------4-----|
E|-4--4-4----------6---6------6----6-6-4---7----4--4-4----------6---6------6----6-6-4---7---|
 
[Chorus]
   Esus2   Bb                        B5 Esus2   Bb                      B5
      Gtr I (quieter in mix)
              ~~~~~~~~~~~~~~~                    ~~~~~~~~~~~~~~~
E|--7------------------------------------7---------------------------------|
B|--7------------------------------------7---------------------------------|
G|--9------------------------------------9---------------------------------|
D|--9-------8----------------------------9------8--------------------------|
A|-------------------------------------------------------------------------|
E|-------------------------------------------------------------------------|
  |  Gtrs 3 & 4                                                               all staves x2
E|-------------------------------------------------------------------------|
B|-------------------------------------------------------------------------|
G|----------7-----------------------------------7--------------------------|
D|--2-------8----------------------8-9---2------8---------------------8-9--|
A|--2-------8----------------------8-9---2------8---------------------8-9--|
E|--0-------6--------------------0-6-7---0------6-------------------0-6-7--|
 
[Outro]
      Esus2    Bb                                              B5
      Gtr I
        ½       ~~        ~~              ~~~~~~~       ~~~
E|--18^------18----16_18-----------------------------------------|
B|-----------------------18-----16__18-15---------15-------------|
G|---------------------------------------------16----16----13-15-|
D|---------------------------------------------------------------|
A|---------------------------------------------------------------|
E|---------------------------------------------------------------|
  |   Gtr II
  |     ½       ~~        ~~              ~~~~~~~       ~~~
E|---------------------------------------------------------------|
B|---------------------------------------------------------------|
G|--15^------15----13_15-----------------------------------------|
D|-----------------------15-----13__15-12---------12-------------| all staves x4
A|---------------------------------------------14----14----11-13-|
E|---------------------------------------------------------------|
  |   Gtrs III, IV
E|---------------------------------------------------------------|
B|---------------------------------------------------------------|
G|------------7--------------------------------------------------|
D|---2--------8---------------------------------------------8--9-|
A|---2--------8---------------------------------------------8--9-|
E|---0--------6------------------------------------------0--6--7-|
 
 
 
************************************
 
| ^    Bend
|(n)   Release bend or tied note
| ~    Vibrato
| _    Hammer-on/pull-off
 
Outros vídeos desta música
    22 exibições
      • ½ Tom
      • Am
      • Bbm
      • Bm
      • Cm
      • C#m
      • Dm
      • Ebm
      • Em
      • Fm
      • F#m
      • Gm
      • G#m
    • Adicionar à lista

    Afinação da cifra

    Afinador online

      0 comentários

      Ver todos os comentários

      Entre para o Cifra Club PRO

      Tenha acesso a benefícios exclusivos no App e no Site

      • Chega de anúncios

      • Mais recursos no app do Afinador

      • Atendimento Prioritário

      • Aumente seu limite de lista

      • Ajude a produzir mais conteúdo

      Cifra Club Pro

      Aproveite o Cifra Club com benefícios exclusivos e sem anúncios
      Cifra Club Pro
      Aproveite o Cifra Club com benefícios exclusivos e sem anúncios
      OK