Cifra Club

Fly

Alice In Chains

Cifra: Principal (violão e guitarra)
Selo Cifra Club: esta cifra foi revisada para atender aos critérios oficiais da nossa Equipe de Qualidade.
tom: D
E|--------------------------------------------------|
B|-----2-----------3--------3-----------3-----------|
G|--------2--0--------0--------0-----------0--------|
D|--------------------------------0-----------0-----|
A|--0-----------3-----------------------------------|
E|-----------------------3-----------3-----------3--| x14

[Pre-Chorus]

E|------------------------------------------------------------------|
B|------------------------------------------------------------------|
G|--7-----7-----7---5-----5-----5-----------------------------------|
D|--7-----7-----7---5-----5-----5---5-----5-----5---7-----7-----7---|
A|--5-----5-----5---3-----3-----3---5-----5-----5---7-----7-----7---|
E|----------------------------------3-----3-----3---5-----5-----5---|

E|-------------------------------------------------|
B|-------------------------------------------------|
G|--7-----7-----7---5-----5-----5------------------|
D|--7-----7-----7---5-----5-----5---5-----5-----5--|
A|--5-----5-----5---3-----3-----3---5-----5-----5--|
E|----------------------------------3-----3-----3--|

[Bridge]

E|--------------------------------------------------|
B|--------------0--------1--------------------------|
G|-----2-----------2--------2-----------------------|
D|--------2-----------2--------2-----2--------------|
A|--0--------0--------------------0-----1--0--------|
E|--------------------------------------------3--0--| x4


[Chorus]

E|-------------------------------------------------------------------|
B|-------------------------------------------------------------------|
G|--5-----5--------------------------7-----7-------------------------|
D|--5-----5------5-------------------7-----7-----7-------------------|
A|--3-----3------5-------------------5-----5-----7-------------------|
E|---------------3-------------------------------5-------------------| x4

[Post-Chorus]

E|-------------0--------------| eb|----------------------------|    eb|-------------0--------------|
B|----------------------------| Bb|-------------1--0-----------|    Bb|----------------------------|
G|-----2--1h2--------2-----2--| Gb|----------------------2-----|    Gb|-----2--1h2--------2-----2--|
D|----------------3-----2-----| Db|-----3--2h3--------3-----3--|    Db|----------------3-----2-----|
A|--0-------------------------| Ab|--0-------------------------|    Ab|--0-------------------------|
E|----------------------------| x4  Eb|----------------------------| x2 Eb|----------------------------| x2


[Solo/Chorus] x4


[Verse] x6


[Pre-Chorus]


[Chorus] x4


[Post-Chorus/Outro]

E|--------------------------------------------------|
B|--------------0--------1--------------------------|
G|-----2-----------2--------2-----------------------|
D|--------2-----------2--------2-----2--------------|
A|--0--------0--------------------0-----1--0--------|
E|--------------------------------------------3--0--| x8
Outros vídeos desta música
    79 exibições
      • ½ Tom
      • A
      • Bb
      • B
      • C
      • Db
      • D
      • Eb
      • E
      • F
      • F#
      • G
      • Ab
    • Adicionar à lista

    Afinação da cifra

    Afinador online

      0 comentários

      Ver todos os comentários

      Entre para o Cifra Club PRO

      Tenha acesso a benefícios exclusivos no App e no Site

      • Chega de anúncios

      • Badges exclusivas

      • Mais recursos no app do Afinador

      • Atendimento Prioritário

      • Aumente seu limite de lista

      • Ajude a produzir mais conteúdo

      Cifra Club Pro

      Aproveite o Cifra Club com benefícios exclusivos e sem anúncios
      Cifra Club Pro
      Aproveite o Cifra Club com benefícios exclusivos e sem anúncios
      OK