Cifra Club

Aprenda

Man In The Box

Alice In Chains

Tab de baixo: Principal
Afinação: D# G# C# F# ou Eb, Ab, Db, Gb
 
Verse				 		
|--------------|------------------|-----------------|------------------|
|*------------*|------------------|-----------------|------------------|
|*------------*|----------------5-|-----------------|----------------5-|
|---0-----0-0--|---0-----0-0-5h7--|---0--0---0---0--|--0----0-0--5h7---|


Pre-Chorus |--0-----0-0--|-0-0-0-0-0-0-0--12s|
					      
						   x3 |~~~~~~~~~~~~~~|
|------------------|-----------------|--------------|-------------------|
|*-----------------|-----------------|--------------|-------------------|
|*---0-0-1-1-2-2---|-2-2-1-1-0-0-----|--------------|-------------------|
|3-3---------------|--------------3-3|---0-----0-0--|-0-0-0-0-0-0-0- 12s|


|------------------|-----------------|--------------|-------------------|
|*-----------------|-----------------|--------------|-------------------|
|*---0-0--1-1-2-2b-|--2--1-1-0-0----|--------------|-------------------|
|3-3---------------|-------------3---|---0-----0-0--|-0-0-0-0-0-0-0- 12s|


Chorus

|--0-----0-0--|-0-0-0-0-0-0-0--12s|
								  x4
|----------------- |-------------------|-------------------|-------------
|*---------------- |-------------------|-------------------|-------------
|*---------------- |------------5---5b-|-5-5-5-------------|-------------
|--0---0--0-0-0-3-3|-3--3-3s6-7---7----| --------7-6--3--5s|5-3-3-2-2-1-1



|----------------- |-------------------|-------------------|
|*---------------- |-------------------|-------------------|
|*---------------- |------------5---5b-|-5-5-5-------------|
|--0---0--0-0-0-3-3|-3--3-3s6-7---7----| --------7-6--3--5s|


|-------------------|----------------|
|-----------------5-|------2---------|
|-------------------|----------------|
|---5-5-5-5-0--3----|0--0--0-0-0--3--|

Depois tudo de novo ao começo do chorus.

Vlw garela bom som \_/

_______________________________________________________
Contribuição: Vinicius Bittencourt(psychors@zaz.com.br)
Contribuição: Gabriel Corrêa Leite (gabriel.clsm@hotmail.com)
Composição de Jerry Cantrell / Layne Staley
Colaboração e revisão:
  • Gabriel Leite
40.855 exibições

0 comentários

Ver todos os comentários

Conseguiu tocar?

7 Tocaram 0 Ainda não

Grave um vídeo tocando Man In The Box e nos envie!

00:00 / 00:00
Outros vídeos desta música
Repetir Qualidade Automático
Outros vídeos desta música
00:00 / 00:00
Automático

Cifra Club Pro

Aproveite o Cifra Club com benefícios exclusivos e sem anúncios
Cifra Club Pro
Aproveite o Cifra Club com benefícios exclusivos e sem anúncios
OK