Cifra Club

Fico Aqui

Alvaro Chaves

Cifra: Principal (violão e guitarra)
tom: A
Intro: A  Bm  D  A
E|----------------------------------------------------------------------------------
B|----------------------------------------------------------------------------------
G|---7/9---9---9---9------------------------------------2----------------2-----2----
D|---------------------7-------7--7/4---------------4------4----2------4---4--------
A|----------------------------------------------------------------------------------
E|----------------------------------------------------------------------------------

E|----------------------------------------------------------------------------------
B|---------3------------------------------------------------------------------------
G|----2--------2---------4/6--------------------------------------------2-----------
D|------------------------------7--------------2----4------2------4-----------------
A|----------------------------------------------------------------------------------
E|----------------------------------------------------------------------------------

E|----------------------------------------------------------------------------------
B|----------------------------------------------------------------------------------
G|------------------------------------------2--------------------------2-------2----
D|---------7-----7/4--------2-----4-------------4------2-----4------------4---------
A|----------------------------------------------------------------------------------
E|----------------------------------------------------------------------------------

E|-----------------------------------------
B|-----------------------------------------
G|------------------2-----------2----------
D|-----2-----4-----------4-----------------
A|-----------------------------------------
E|-----------------------------------------

Intro: A  Bm  D  A  Bm  D

A
Fico aqui, permaneço em ti
Bm                                       D
Olhos nos olhos, sei o que você quer
                          A
Quer estar perto de mim
A
Olho cada flash que me passa em mente
Bm                                       D                         A
Olha eu não sei, só sei que eu errei, não sei, o que te fez tão triste
         A                                                    Bm
Eu já pensei retruquei, agora eu não sei mais o que eu posso fazer
                             D                          A
Pra não te fazer sofrer, desculpa,  mais eu me preocupo
        A                                        Bm                                      D
É indiscritivel a dor quando você sai, da as costas e diz, não quero mais e então
                                                A
Você fica mais longe e parte o meu coração
A                  A
E eu não sei yeh yeh yeh
Bm
Yeh yeh
         D
Eu só sei
                     A
Que parte o meu coração 2X
A Bm D
Úuuúuú
           A                 Bm                         D
Tudo traz, meu pior e se faz um pesadelo voraz
                           A
Que me consome por dentro
        A                       Bm
Eu não sei, mais algo devo fazer

                                 D
Espero poder te dizer
                           A
Que o nosso amor só cresce
         A                                                    Bm
Eu já pensei retruquei, agora eu não sei mais o que eu posso fazer
                             D                          A
Pra não te fazer sofrer, desculpa,  mais eu me preocupo
        A                                        Bm                                      D
É indiscritivel a dor quando você sai, da as costas e diz, não quero mais e então
                                                A
Você fica mais longe e parte o meu coração
A                  A
E eu não sei yeh yeh yeh
Bm
Yeh yeh
         D
Eu só sei
                     A
Que parte o meu coração  (3x)
Compositor não encontrado.
Colaboração e revisão:
  • Alvaro Filho
72 exibições
    • ½ Tom
    • A
    • Bb
    • B
    • C
    • Db
    • D
    • Eb
    • E
    • F
    • F#
    • G
    • Ab
  • Adicionar à lista

    0 comentários

    Ver todos os comentários

    Conseguiu tocar?

    0 Tocaram 0 Ainda não

    Grave um vídeo tocando Fico Aqui e nos envie!

    00:00 / 00:00
    Outros vídeos desta música
    Repetir Qualidade Automático
    Outros vídeos desta música
    00:00 / 00:00
    Automático

    Cifra Club Pro

    Aproveite o Cifra Club com benefícios exclusivos e sem anúncios
    Cifra Club Pro
    Aproveite o Cifra Club com benefícios exclusivos e sem anúncios
    OK