Cifra Club

Maria da Eucaristia

Anjos de Resgate

Cifra: Completa (violão e guitarra)
Selo Cifra Club: esta cifra foi revisada para atender aos critérios oficiais da nossa Equipe de Qualidade.
tom: A
[Intro]

E|----------------------2------------------------------|
B|--2--3--3-/-5-\-3--2--3--3-p-2-----------------------|
G|--2--x--x---x---x--2--4--------4-p-2---2-------5-----|
D|--2--4--4-/-6-\-4--2--4--------------4---4-/-6-------|
A|----------------------2------------------------------|
E|----------------------2------------------------------|

E|----------------------------------------------------------------|
B|--7-\-6-\-4--2----------9-10-9----------------------------------|
G|--x--x----x--2--------9--------9^----9-11-7-/-9-9---------------|
D|--7-\-5-\-3--2--9--11-------------12---------------11-9-11^-----|
A|------------------------------------------------------------12--|
E|----------------------------------------------------------------|

E|----------------|
B|--9-12-10-------|
G|----------------|
D|----------------|
A|----------------|
E|----------------|

A                      Bm             E
Quão grande graça após uma consagração

Solo 1

E|--10-9--------------------------|
B|--------12-10-------------------|
G|---------------11-11-/-13-------|
D|--------------------------------|
A|--------------------------------|
E|--------------------------------|

                      A
Feita por Pedro, por Tiago ou por João.

Solo 2

E|--------------------------------|
B|-----9-12-9-10------------------|
G|--9-----------------------------|
D|--------------------------------|
A|--------------------------------|
E|--------------------------------|

                      D
A mãe que alimentou Jesus em seu ser,

Solo 3

E|--12-10-9-----------------------|
B|-----------12-10-9--------------|
G|--------------------------------|
D|--------------------------------|
A|--------------------------------|
E|--------------------------------|

E                         A
Comunga agora o Deus comunhão

Solo 4

E|------17-----14------12-------------------|
B|------------------------------------------|
G|--18-----14------13------16^--14------14--|
D|----------------------------------16------|
A|------------------------------------------|
E|------------------------------------------|

[Refrão]
A                     D
Quanta alegria a de Maria

Solo 5

E|----------------------------|
B|--10-9----------------------|
G|--------11-11-9-7-/-9-------|
D|----------------------------|
A|----------------------------|
E|----------------------------|

E                        A
Receber Jesus na Eucaristia.

Solo 6

E|--12------------------------|
B|------12-14-15-12-/-14------|
G|----------------------------|
D|----------------------------|
A|----------------------------|
E|----------------------------|

                        D
O corpo do Filho que um dia ela gerou,

Solo 7

E|---------------------------------------|
B|------9-9-10-9-\-7-7-\-5-5-\-2-2-/-5---|
G|--11-----------------------------------|
D|---------------------------------------|
A|---------------------------------------|
E|---------------------------------------|

E                             A
Foi ela quem primeiro O comungou.

Solo 8

E|-------------------------------------|
B|-------------------------------------|
G|-------------------------------------|
D|--7-9-7-9-6-7------------------------|
A|-------------------------------------|
E|-------------------------------------|

A                  Bm          E
Eu imagino que naquela refeição
                     A
Estava junto aquela que sempre O seguiu
                       D
A Mãe que deu a luz o Cristo meu Senhor
  E                         A
Comeu do pão que o Filho serviu

A                     Bm           E
Quanta alegria a de Maria que gerou
                        A
O Deus que em seu ventre um dia alimentou
                     D
Ser novamente sua morada
E                            A
Por isso és bendita e agraciada
Outros vídeos desta música
    1.634 exibições
      • ½ Tom
      • A
      • Bb
      • B
      • C
      • Db
      • D
      • Eb
      • E
      • F
      • F#
      • G
      • Ab
    • Adicionar à lista

    Afinação da cifra

    Afinador online

      0 comentários

      Ver todos os comentários

      Entre para o Cifra Club PRO

      Tenha acesso a benefícios exclusivos no App e no Site

      • Chega de anúncios

      • Badges exclusivas

      • Mais recursos no app do Afinador

      • Atendimento Prioritário

      • Aumente seu limite de lista

      • Ajude a produzir mais conteúdo

      Cifra Club Pro

      Aproveite o Cifra Club com benefícios exclusivos e sem anúncios
      Cifra Club Pro
      Aproveite o Cifra Club com benefícios exclusivos e sem anúncios
      OK