Cifra Club

10000 Razões

Arena Louvor

Cifra: Principal
exibições 39.561
Tom: G
Intro: C  G  D  Em  C  G  D

            C          G
Minh'alma canta ao Senhor
D      Em
Ao  Senhor
C          G   D
Seu nome adorarei
        C           G
Bendiga todo o meu ser
C    D Em
Ao  Senhor
    C      D  Gsus4 G   C  G
Seu nome adorarei

   G                  D     Em
O sol nasceu surge um novo dia
C           G      D        Em
 eu canto a ti uma nova canção
   C          G              D            Em
E seja o que for ou o que esta diante de mim
C        G           D    Gsus4 G
Eu cantarei ate ao anoitecer

            C          G
Minh'alma canta ao Senhor
D      Em
Ao  Senhor
C          G   D
Seu nome adorarei
        C           G
Bendiga todo o meu ser
C    D Em
Ao  Senhor
    C      D  Gsus4 G   D  Em  C
Seu nome adorarei

SOLO 1:

E|-/12-10--10h12p10-----------------------------------------------------|
B|-------------------12------12/10--8--10--8--8h10p8--------------------|
G|----------------------------------------------------9--------/5---4---|
D|----------------------------------------------------------------------|
A|----------------------------------------------------------------------|
E|----------------------------------------------------------------------|

       G          D   Em    C
Tu és amor sempre paciente
C       G              D      Em
Tu es fiel grande é o seu coração
  C     G      D         Em  D
Tua bondade me leva a cantar
C             G       D    Gsus4 G
  Dez mil razões pra te adorar

            C          G
Minh'alma canta ao Senhor
D      Em
Ao  Senhor
C          G   D
Seu nome adorarei
        C           G
Bendiga todo o meu ser
C    D Em
Ao  Senhor
    C      D  Gsus4 G   C  G
Seu nome adorarei

(Solo 2)

E|----7-10-10/12-10-10h12p10----|-------------------|----------------------------|
B|-/8------------------------12-|-10-12-10-8h10p8---|-8-8-10-10-12-10-10b12------|
G|------------------------------|-----------------9-|-----------------------9b11-|
D|------------------------------|-------------------|----------------------------|
A|------------------------------|-------------------|----------------------------|
E|------------------------------|-------------------|----------------------------|

E|-10-10-10-10----------------------10-10-10-12-12-12-15-14-------|
B|-------------10-10-10-10/12-12-12-------------------------15/12-|
G|----------------------------------------------------------------|
D|----------------------------------------------------------------|
A|----------------------------------------------------------------|
E|----------------------------------------------------------------|

E|-------------------------------------|
B|-10h12p10-8-10-10b12-10-8h10p8/7-7b8-|
G|-------------------------------------|
D|-------------------------------------|
A|-------------------------------------|
E|-------------------------------------|

      G               D    Em   C
E quando enfim se findar o dia
C       G        D        Em
E o meu tempo aqui se acabar
  C             G           D    Em     C
Ainda assim minh'alma seguirá cantando
C         G             D     Gsus4 G
Por toda eternidade eu vou cantar

            C          G
Minh'alma canta ao Senhor
D      Em
Ao  Senhor
C          G   D
Seu nome adorarei
        C           G
Bendiga todo o meu ser
C    D Em
Ao  Senhor
    C      D  Gsus4 G
Seu nome adorarei (3x)

        C           G
Bendiga todo o meu ser
C    D Em
Ao  Senhor
    C      D  Gsus4 G
Seu nome adorarei (3x)
Acordes para:
    Colaboração e revisão:

    0 comentários

      mostrar mais comentários

      Conseguiu tocar?

      2tocaram0ainda não

      Grave um vídeo tocando 10000 Razões e mande pra gente!

      00:00 / 00:00
      outros vídeos desta música
      repetirqualidadeautomática
      Outro vídeos desta música
        00:00 / 00:00
        automática
        OK