Cifra Club

Corpo Moreno

Asa de Águia

Cifra: Principal (violão e guitarra)
Selo Cifra Club: esta cifra foi revisada para atender aos critérios oficiais da nossa Equipe de Qualidade.
tom: G
G            D             Am   C
Desde aquele dia em que te vi
G            D             Am   C
Numa tarde linda de verão
G            D             Am   C
Você jogou um charme pra mim
G            D             Am   C
Veio num sorriso de amor

Am           C            G
Ah, como eu vivi doces momento
             D
Querendo te amar
Am           C                  G
Ah, como eu curti seu corpo moreno
            D
Nas onda do mar

Am                  C        G
E a distância entre nós é a vida
Am                  C        G
Como o sol no horizonte a brilhar
Am                  C        G
Nosso amor conquistou o infinito
Am                  C        D
Como a luz que nasceu do luar

              G     D
E quero te dizer
Am      C
Te amo
          G     D
Preciso de vc
Am      C     G
Te amo

(solo da gaita no violão)
E |-9--7--7-9-11-9-7-9---11-9-7-----------------------------------|
B |----------------------------9--9/12-9-7---777777----9-9/12-9-7-|
G |------------------------------------------------989------------|
D |---------------------------------------------------------------|
A |---------------------------------------------------------------|
E |---------------------------------------------------------------|

E |----------------------------------------9----------------------|
B |--777777---------------------7-9-12-9-12-12--------------------|
G |--------9898----7-7-9-9/12-12----------------------------------|
D |------------9-99-9---------------------------------------------|
A |---------------------------------------------------------------|
E |---------------------------------------------------------------|
00:00 / 00:00
Outros vídeos desta música
Repetir
Outros vídeos desta música
70.715 exibições
    • ½ Tom
    • A
    • Bb
    • B
    • C
    • Db
    • D
    • Eb
    • E
    • F
    • F#
    • G
    • Ab
  • Adicionar à lista

Afinação da cifra

Afinador online

    0 comentários

    Ver todos os comentários

    Entre para o Cifra Club PRO

    Tenha acesso a benefícios exclusivos no App e no Site

    • Chega de anúncios

    • Mais recursos no app do Afinador

    • Atendimento Prioritário

    • Aumente seu limite de lista

    • Ajude a produzir mais conteúdo

    00:00 / 00:00

    Cifra Club Pro

    Aproveite o Cifra Club com benefícios exclusivos e sem anúncios
    Cifra Club Pro
    Aproveite o Cifra Club com benefícios exclusivos e sem anúncios
    OK