Cifra Club

Pequena Eva

Banda Eva

Cifra: Principal
exibições 453.137
Tom: D
Intro: Em  D  D  C#m  Bm  Bm  Bm  A  G  G  G  F#m  Em  A4  A

     Em
E|-----------------------------10-12--|
B|--3/5-5----5/8-8----8/12-12---------|
G|------------------------------------|
D|------------------------------------|
A|------------------------------------|
E|------------------------------------|

       D                      D C#m Bm
E|--14~------10-12-14-15--14-12-10~---|
B|--------10--------------------------|
G|------------------------------------|
D|------------------------------------|
A|------------------------------------|
E|------------------------------------|

       Bm                     Bm A G
E|--14~------10-12-14-15--14-12-10~---|
B|--------10--------------------------|
G|------------------------------------|
D|------------------------------------|
A|------------------------------------|
E|------------------------------------|

         Em      A4 A
E|--3-5-3-----10-9---|
B|-------------------|
G|-------------------|
D|-------------------|
A|-------------------|
E|-------------------|

         G
Meu amor, olha só
                 A
Hoje o sol não apareceu

    G                         D      D4 D
É o fim da aventura humana na terra

             G                               A Riff 1
Meu planeta adeus fugiremos nós dois na arca de Noé

                     G
Mas olha bem, meu amor
                       D
O final da odisséia terrestre
             Em
Sou Adão e você será...

              D
Minha pequena Eva, (Eva)
                A/C         Bm
O nosso amor na última astronave, (Eva)
            Bm/A          G    F#m Em
Além do infinito eu vou voar
         A4    A
 Sozinho com você

             D     D4 D
E voando bem alto (E -va)
                 A/C#             Bm
Me abraça pelo espaço de um instante (Eva)
                 Bm/A       G      F#m Em
Me cobre com teu corpo e me dá...
        A4     A
A força pra viver

                           Bm  A/C#
E pelo espaço de um instante
                G/D
Afinal, não há nada mais
E4
Que o céu azul pra gente voar

G                         A    Riff1
Sobre o Rio, Beirute ou Madagascar

       G                      D
Toda a terra reduzida a nada, nada mais

                     G
E a minha vida é um flash
                          A     Riff1
de controles botões anti-atômicos

                         G
Mas olha, olha bem meu amor
                        D
No final da odisséia terrestre
             Em
Sou Adão e você... diz pra mim o que você será!

              D     D4 D
Minha pequena Eva, (E -va)
                A/C#          Bm
O nosso amor na última astronave, (Eva)
            Bm/A          G   F#m Em
Além do infinito eu vou voar
         A4    A
 Sozinho com você

             D     D4 D
E voando bem alto (E -va)
                 A/C#             Bm
Me abraça pelo espaço de um instante (Eva)
                 Bm/A       G    F#m Em
Me cobre com teu corpo e me dá...
        A4    A
A força pra viver

              D
Minha pequena Eva, (Eva)
                   D C#m Bm
O nosso amor na última astronave, (Eva)
Bm               Bm A G      G F#m Em
Além do infinito eu vou voar
Em              A4  A
 Sozinho com você

             D     D4 D
E voando bem alto (E -va)
                 A/C#             Bm
Me abraça pelo espaço de um instante (Eva)
                 Bm/A       G    F#m Em
Me cobre com teu corpo e me dá...
        A4    A
A força pra viver

Riff 1:

E|-----------5h7p5-----9h10p9-------|
B|--5h7p7---------------------------|
G|----------------------------------|
D|----------------------------------|
A|----------------------------------|
E|----------------------------------|
Acordes para:

    0 comentários

      mostrar mais comentários

      Conseguiu tocar?

      15tocaram0ainda não

      Grave um vídeo tocando Pequena Eva e mande pra gente!

      00:00 / 00:00
      outros vídeos desta música
      repetirqualidadeautomática
      Outro vídeos desta música
        00:00 / 00:00
        automática
        OK