Cifra Club

O Homem da Chuva

Assassinato Em Veneza

Cifra: Principal (violão e guitarra)
tom: B
Intro:  (  B        C#m  )

----------------------------------------------------------------------------------------|
----------------------------------------------------------------------------------------|
-----------------------------------------------------------------------1----------------|
--------------------------------------------------------------2---2--------2------------|
---2---2----6----6----4----2----2---------------2----4---4--------------------4---------|
-------------------------------------0----4---------------------------------------------|

----------------------------------------------------------------------------------------|
----------------------------------------------------------------------------------------|
----------------------------------------------------------------------------------------|
----------------------------------------------------------------------------------------|
---4----6-----4-----2-------------------------------------------------------------------|
----------------------------------------------------------------------------------------|

(1ª estrofe)
     (   B          C#m   )
    
Você já reparou ! Como é fascinante olhar a chuva !
Como alivia a dor ! E como pouco a pouco ela nos conquista !
E nos convida assitir ! ao tempo escorrer pela sarjeta !
Nos convencendo de que a vida sempre cobra o troco
E esquece da gorjeta !

(2ª estrofe)
   (   B           C#m   )   

Você já reparou ! Como é improvável a previsão do tempo !
Eu quero é mais que a lama suje meus pés e a chuva lave meus pensamentos...
Eu quero é mais que a lama suje meus pés e a chuva lave meus pensamentos...

REFRÃO

B                            F#/A#                           G#m
     A liberdade que o som da chuva me traz ....
                                 E            F#
É semelhante ao que você me faz sentir...
B                          F#/A#                              G#m
     A liberdade que o som da chuva me traz..
                                 E           F#
É semelhante ao que você me faz sentir...

VOLTA PRA 2ª ESTROFE

REFRÃO

B                          F#/A#                             G#m
       A liberdade que o som da chuva me traz ...
                                  E          F#
É semelhante ao que você me faz sentir...
B                         F#/A#                            G#m
       A liberdade que o som chuva me traz...
                                  E                              
É semlhante ao que você me faz sentir...
F#      E              F#       E 
     Oiee...hey....  ou   oiee...hey....ei

SOLO
--------------------------------------------------------------------------------------|
--------------------------------------------------------------------------------------|
-------------------------6-----4------------------------------------------------------|
-------------------4-----------------4------------------------------------------------|
---2-----4-/-6------------------------------4b---2----4-----4-/-6----6-/-7------------|
--------------------------------------------------------------------------------------|
 
--------------------------------------------------------------------------------------|
-----------7----------7-----------7---------------------------------------------------|
----7h8-------7h8--------7h8----------7h8-----6-----4---------------------------------|
----------------------------------------------------------------4-----6-----4---------|
--------------------------------------------------------------------------------------|
--------------------------------------------------------------------------------------|

--------------------------------------------------------------------------------------|
--------------------------------------------------------------------------------------|
----6b-----6-----4-----6-----6-----6b-----4-------------------------------------------|
--------------------------------------------------------------------------------------|
--------------------------------------------------------------------------------------|
--------------------------------------------------------------------------------------|

VOLTA PRO REFRÃO
00:00 / 00:00
Outros vídeos desta música
Repetir
Outros vídeos desta música
Composição de pompeu
Colaboração e revisão:
  • benedito neto
1.118 exibições
    • ½ Tom
    • A
    • Bb
    • B
    • C
    • Db
    • D
    • Eb
    • E
    • F
    • F#
    • G
    • Ab
  • Adicionar à lista

    0 comentários

    Ver todos os comentários

    Conseguiu tocar?

    0 Tocaram 0 Ainda não

    Grave um vídeo tocando O Homem da Chuva e nos envie!

    Entre para oCifra Club PRO

    Tenha acesso a benefícios exclusivos no App e no Site

    • Chega de anúncios

    • Prioridade de compra em lançamentos

    • Mais recursos no app do Afinador

    • Atendimento Prioritário

    • Descontos nos produtos Cifra Club

    • Ajude a produzir mais conteúdo

    00:00 / 00:00

    Cifra Club Pro

    Aproveite o Cifra Club com benefícios exclusivos e sem anúncios
    Cifra Club Pro
    Aproveite o Cifra Club com benefícios exclusivos e sem anúncios
    OK