Cifra Club

Algo Para Os Momentos Difíceis

Astoria

Cifra: Principal (violão e guitarra)
Tom: F
OBS: TODAS AS NOTAS SÂO TOCADAS EM POWER ACORD

Primeiro vou por essas notas aqui em tab..

Vamos chamar essa de "X"
E|----x-----------------------------------------------------------
A|----5-----------------------------------------------------------
D|----8-----------------------------------------------------------
G|----x-----------------------------------------------------------
B|----x-----------------------------------------------------------
E|----x-----------------------------------------------------------

Essa chamaremos de "Y"
E|----2-----------------------------------------------------------
A|----5-----------------------------------------------------------
D|----4-----------------------------------------------------------
G|----x-----------------------------------------------------------
B|----x-----------------------------------------------------------
E|----x-----------------------------------------------------------

Eb                    "X"                   C
Estou aqui outra vez, agora é bem mais difícil 
     Bb
As coisas já não vão tão bem 
G#                       "Y"                  F
Não sei o que lhe dizer, só sei por onde começar 
G#
Você nunca estará só
Eb          "X"            C           F        G#     "Y"
Pois quando sobre o seu céu nuvens negras existirem 
F                G#
E o sol não mais puder brilhar
Eb         "X"      C        Bb      G#    "Y"
Eu estarei com você e falaremos tolices
F                 G#                    Eb
E será como se os problemas não existissem 

     C Bb  G#                    C Bb  G#
Mas se não há nada que eu possa fazer
  C  Bb    G#               Bb
Como então posso lhe ajudar a superar, a esquecer 
C                       G#
Tirar do peito essa dor, sinto tanto a sua falta 
Bb
Desde que você se foi 

Eb                  Bb                C
Saiba que você pode sempre contar comigo 
     Bb                 Eb      Bb
Pode sempre contar comigo 
G#            Bb
Nada mais vai lhe fazer chorar 
Eb                  Bb                C
Saiba que você pode sempre contar comigo 
     Bb                 Eb      Bb
Pode sempre contar comigo 
G#            Bb
Nada mais vai lhe fazer chorar 

Eb    "X"           C       Bb    G#    "Y"   
Nada mais vai lhe fazer chorar outra vez 
                F                G#
Nada vai fazer chorar, no que de mim depender 
Eb        "X"        C     
Tudo o que eu quis dizer 
Bb             G#     "Y"
Tudo o que eu não disse 
F            G#         Eb
Algo para os momentos difíceis 

Agora vem esse solo oitavado:

E|----x-x-x-x-x-x-x---x-x-x-x-x-x-x---x-x-x-x-x-x-x
A|----6-6-6-6-6-6-6---5-5-5-5-5-6-6---3-3-3-3-3-3-3
D|----x-x-x-x-x-x-x---x-x-x-x-x-x-x---x-x-x-x-x-x-x
G|----8-8-8-8-8-8-8---7-7-7-7-7-8-8---5-5-5-5-5-5-5
B|----x-x-x-x-x-x-x---x-x-x-x-x-x-x---x-x-x-x-x-x-x
E|----x-x-x-x-x-x-x---x-x-x-x-x-x-x---x-x-x-x-x-x-x

F            G#         Eb
Algo para os momentos difíceis 

A partir de agora começa um outro solo que ainda não consegui tirar.. se alguem conseguir coloca ai..

Eb    "X"           C       Bb    G#    "Y"   
Nada mais vai lhe fazer chorar outra vez 
                F                G#
Nada vai fazer chorar, no que de mim depender 
Eb        "X"        C     
Tudo o que eu quis dizer 
Bb             G#     "Y"
Tudo o que eu não disse 
F            G#         Eb
Algo para os momentos difíceis

     C Bb  G#                    C Bb  G#
Mas se não há nada que eu possa fazer
  C  Bb    G#               Bb
Como então posso lhe ajudar a superar, a esquecer 
C                       G#
Tirar do peito essa dor, sinto tanto a sua falta 
Bb
Desde que você se foi 

Eb                  Bb                C
Saiba que você pode sempre contar comigo 
     Bb                 Eb      Bb
Pode sempre contar comigo 
G#            Bb
Nada mais vai lhe fazer chorar 
Eb                  Bb                C
Saiba que você pode sempre contar comigo 
     Bb                 Eb      Bb
Pode sempre contar comigo 
G#            Bb
Nada mais vai lhe fazer chorar 

Agora vem outro solo oitavado:
E|----x-x-x-x-x-x-x---x-x-x-x-x-x-x---x-x-x-x-x-x-x---x
A|----6-6-6-6-6-6-6---5-5-5-5-5-6-6---3-3-3-3-3-3-3---1
D|----x-x-x-x-x-x-x---x-x-x-x-x-x-x---x-x-x-x-x-x-x---x
G|----8-8-8-8-8-8-8---7-7-7-7-7-8-8---5-5-5-5-5-5-5---3
B|----x-x-x-x-x-x-x---x-x-x-x-x-x-x---x-x-x-x-x-x-x---x
E|----x-x-x-x-x-x-x---x-x-x-x-x-x-x---x-x-x-x-x-x-x---x

G#

Solinho no final da nota acima (G#)

E|-----------------------
A|----------6------------
D|----6--5---------------
G|-----------------------
B|-----------------------
E|-----------------------
exibições 3.236
Acordes para:
    Composição: Astoria / Leo Colaboração e revisão:
    • Felipe Prado

    0 comentários

    mostrar mais comentários

    Conseguiu tocar?

    0 tocaram 0 ainda não

    Grave um vídeo tocando Algo Para Os Momentos Difíceis e mande pra gente!

    00:00 / 00:00
    outros vídeos desta música
    repetir qualidade Automático
    Outros vídeos desta música
    00:00 / 00:00
    Automático
    OK