Cifra Club

Aprenda

Song 4

Babymetal

Cifra: Principal (violão e guitarra)
tom: Em
Tuning: B standard (B-E-A-D-F#-B)

INTRO
Guitar 1
E|-----------------|
B|-----------------|
G|-----------------|
D|---------2h4-----| X31
A|-----2h4---------|
E|-2h5-------------|

Guitar 2
E|-------|
B|-------|
G|-------|
D|-------|
A|-12\---|
E|-12\---|

E|---------------------------|
B|---------------------------|
G|---------------------------|
D|---------------------------| X3
A|-4-4--4-4-4--4-4-4-4-------|
E|-2-2--2-2-2--2-2-2-2-------|

E|-------------------------|
B|-------------------------|
G|-------------------------|
D|------5-5-5--4-4-4-4-----|
A|-4-4--3-3-3--2-2-2-2-----|
E|-2-2---------------------|

VERSE
E|-------------------------------------------------------------------------------------------------|
B|-------------------------------------------------------------------------------------------------|
G|-------------------------------------------------------------------------------------------------|
D|-----2-----3-----4-----3-----2-------2-----3-----4-----3-----2-------2-----3---------------4-----|
A|----------------------------------------------------------------------------------33333333-2-----|
E|-2-2---2-2---2-2---222---2-2---2-2-2---2-2---2-2---222---2-2---2-2-2---2-2---2-2-----------------|
   x x   x x   x x   xxx   x x   x x x   x x   x x   xxx   x x   x x x   x x   x x  xxxxxxxx

E|--------------------------------------|
B|--------------------------------------|
G|--------------------------------------|
D|--5/4---5/4---5/4-5/4---5/4---5/4-----|
A|--3/2-0-3/2-0-3/2-3/2-0-3/2-0-3/2-----|
E|--------------------------------------|

INTRO AGAIN  
Guitar 1
E|-----------------|
B|-----------------|
G|-----------------|
D|---------2h4-----| X15
A|-----2h4---------|
E|-2h5-------------|
 
Guitar 2
E|---------------------------|
B|---------------------------|
G|---------------------------|
D|---------------------------| X3
A|-4-4--4-4-4--4-4-4-4-------|
E|-2-2--2-2-2--2-2-2-2-------|

E|-------------------------|
B|-------------------------|
G|-------------------------|
D|------5-5-5--4-4-4-4-----|
A|-4-4--3-3-3--2-2-2-2-----|
E|-2-2---------------------|

VERSE 2
E|-------------------------------------------------------------------------------------------------|
B|-------------------------------------------------------------------------------------------------|
G|-------------------------------------------------------------------------------------------------|
D|-----2-----3-----4-----3-----2-------2-----3-----4-----3-----2-------2-----3---------------4-----|
A|----------------------------------------------------------------------------------33333333-2-----|
E|-2-2---2-2---2-2---222---2-2---2-2-2---2-2---2-2---222---2-2---2-2-2---2-2---2-2-----------------|
   x x   x x   x x   xxx   x x   x x x   x x   x x   xxx   x x   x x x   x x   x x  xxxxxxxx

E|--------------------------------------|
B|--------------------------------------|
G|--------------------------------------|
D|--5/4---5/4---5/4-5/4---5/4---5/4-----|
A|--3/2-0-3/2-0-3/2-3/2-0-3/2-0-3/2-----|
E|--------------------------------------|

INTRO AGAIN  
Guitar 1
E|-----------------|
B|-----------------|
G|-----------------|
D|---------2h4-----| X15
A|-----2h4---------|
E|-2h5-------------|
 
Guitar 2
E|---------------------------|
B|---------------------------|
G|---------------------------|
D|---------------------------| X3
A|-4-4--4-4-4--4-4-4-4-------|
E|-2-2--2-2-2--2-2-2-2-------|

E|-------------------------|
B|-------------------------|
G|-------------------------|
D|------5-5-5--4-4-4-4-----|
A|-4-4--3-3-3--2-2-2-2-----|
E|-2-2---------------------|

CHORUS (Listen for timing)
E|-------------------------------------------------------------------------|
B|-------------------------------------------------------------------------|
G|-------------------------------------------------------------------------|
D|--14-14-14-14-14-14-14-14--11-11-11-11-11-11-11-11---9-9-9---------------| X3
A|--12-12-12-12-12-12-12-12--9--9--9--9--9--9--9--9----7-7-7---------------|
E|--12-12-12-12-12-12-12-12--9--9--9--9--9--9--9--9----7-7-7---------------|

E|-------------------------------------------------------------------------|
B|-------------------------------------------------------------------------|
G|-------------------------------------------------------------------------|
D|--14-14-14-14-14-14-14-14--11-11-11-11-11-11-11-11-----11-11--11-11-11---|
A|--12-12-12-12-12-12-12-12--9--9--9--9--9--9--9--9------9--9---9--9--9----|
E|--12-12-12-12-12-12-12-12--9--9--9--9--9--9--9--9------9--9---9--9--9----|

BREAK
E|--------------------------------------------------------------------------------------|
B|--------------------------------------------------------------------------------------|
G|---------------------------------------------------------------------------5*h6-------|
D|--------------4/5---------------------------------4/5-----------------4*h5------4*h5--|
A|--------------2/3---------------3*~---------------2/3------------3*h4-----------------|
E|-2-2--2-2-5-2------2-2--2-2-5-2------2-2--2-2-5-2-------2-2--2-2----------------------|
   x x  x x x x      x x  x x x x      x x  x x x x       x x  x x

E|--------------------------------------------------------------------------------|
B|--------------------------------------------------------------------------------|
G|-------------------------------------------------------------------------5-6----|
D|--------------4/5---------------------------------4/5----------------4-5--------|
A|--------------2/3---------------3*~---------------2/3------------3-4------------|
E|-2-2--2-2-5-2------2-2--2-2-5-2------2-2--2-2-5-2-------2-2--2-2----------------|
   x x  x x x x      x x  x x x x      x x  x x x x       x x  x x x x x x x x

CLEAN
E|-12-12--12---12-12--12---14-14--14---14-14--14---12-12--12---12-12--12---14-14--14---14-14--|
B|-14-14--14---14-14--14---14-14--14---14-14--14---14-14--14---14-14--14---14-14--14---14-14--|
G|-14-14--14---14-14--14---14-14--14---14-14--14---14-14--14---14-14--14---14-14--14---14-14--|
D|--------------------------------------------------------------------------------------------|
A|--------------------------------------------------------------------------------------------|
E|--------------------------------------------------------------------------------------------|

BREAK AGAIN
E|--------------------------------------------------------------------------------------|
B|--------------------------------------------------------------------------------------|
G|---------------------------------------------------------------------------5*h6-------|
D|--------------4/5---------------------------------4/5-----------------4*h5------4*h5--|
A|--------------2/3---------------3*~---------------2/3------------3*h4-----------------|
E|-2-2--2-2-5-2------2-2--2-2-5-2------2-2--2-2-5-2-------2-2--2-2----------------------|
   x x  x x x x      x x  x x x x      x x  x x x x       x x  x x

E|--------------------------------------------------------------------------------|
B|--------------------------------------------------------------------------------|
G|-------------------------------------------------------------------------5-6----|
D|--------------4/5---------------------------------4/5----------------4-5--------|
A|--------------2/3---------------3*~---------------2/3------------3-4------------|
E|-2-2--2-2-5-2------2-2--2-2-5-2------2-2--2-2-5-2-------2-2--2-2----------------|
   x x  x x x x      x x  x x x x      x x  x x x x       x x  x x x x x x x x

CLEAN
E|-12-12--12---12-12--12---14-14--14---14-14--14---12-12--12---12-12--12---14-14--14---14-14--|
B|-14-14--14---14-14--14---14-14--14---14-14--14---14-14--14---14-14--14---14-14--14---14-14--|
G|-14-14--14---14-14--14---14-14--14---14-14--14---14-14--14---14-14--14---14-14--14---14-14--|
D|--------------------------------------------------------------------------------------------|
A|--------------------------------------------------------------------------------------------|
E|--------------------------------------------------------------------------------------------|

INTRO AGAIN  
Guitar 1
E|-----------------|
B|-----------------|
G|-----------------|
D|---------2h4-----| X15
A|-----2h4---------|
E|-2h5-------------|
 
Guitar 2
E|---------------------------|
B|---------------------------|
G|---------------------------|
D|---------------------------| X3
A|-4-4--4-4-4--4-4-4-4-------|
E|-2-2--2-2-2--2-2-2-2-------|

E|-------------------------|
B|-------------------------|
G|-------------------------|
D|------5-5-5--4-4-4-4-----|
A|-4-4--3-3-3--2-2-2-2-----|
E|-2-2---------------------|

VERSE 3
E|-------------------------------------------------------------------------------------------------|
B|-------------------------------------------------------------------------------------------------|
G|-------------------------------------------------------------------------------------------------|
D|-----2-----3-----4-----3-----2-------2-----3-----4-----3-----2-------2-----3---------------4-----|
A|----------------------------------------------------------------------------------33333333-2-----|
E|-2-2---2-2---2-2---222---2-2---2-2-2---2-2---2-2---222---2-2---2-2-2---2-2---2-2-----------------|
   x x   x x   x x   xxx   x x   x x x   x x   x x   xxx   x x   x x x   x x   x x  xxxxxxxx

E|--------------------------------------|
B|--------------------------------------|
G|--------------------------------------|
D|--5/4---5/4---5/4-5/4---5/4---5/4-----|
A|--3/2-0-3/2-0-3/2-3/2-0-3/2-0-3/2-----|
E|--------------------------------------|

E|-------------------------------------------------------------------------------------------------|
B|-------------------------------------------------------------------------------------------------|
G|-------------------------------------------------------------------------------------------------|
D|-----2-----3-----4-----3-----2-------2-----3-----4-----3-----2-------2-----3---------------4-----|
A|----------------------------------------------------------------------------------33333333-2-----|
E|-2-2---2-2---2-2---222---2-2---2-2-2---2-2---2-2---222---2-2---2-2-2---2-2---2-2-----------------|
   x x   x x   x x   xxx   x x   x x x   x x   x x   xxx   x x   x x x   x x   x x  xxxxxxxx

E|-------------------------------------------------------------------|
B|-------------------------------------------------------------------|
G|-------------------------------------------------------------------|
D|--5/4---5/4---5/4-5/4---5/4---5/4-5/4---5/4---5/4-5/4---5/4---5/4--|
A|--3/2-0-3/2-0-3/2-3/2-0-3/2-0-3/2-3/2-0-3/2-0-3/2-3/2-0-3/2-0-3/2--|
E|-------------------------------------------------------------------|

INTRO AGAIN
E|---------------------------|
B|---------------------------|
G|---------------------------|
D|---------------------------| X4
A|-4-4--4-4-4--4-4-4-4-------|
E|-2-2--2-2-2--2-2-2-2-------|

E|-----------------|
B|-----------------|
G|-----------------|
D|---------2h4-----| X15
A|-----2h4---------|
E|-2h5-------------|
 
Guitar 2
E|---------------------------|
B|---------------------------|
G|---------------------------|
D|---------------------------| X3
A|-4-4--4-4-4--4-4-4-4-------|
E|-2-2--2-2-2--2-2-2-2-------|

E|-------------------------|
B|-------------------------|
G|-------------------------|
D|------5-5-5--4-4-4-4-----|
A|-4-4--3-3-3--2-2-2-2-----|
E|-2-2---------------------|

CHORUS (Listen for timing)
E|-------------------------------------------------------------------------|
B|-------------------------------------------------------------------------|
G|-------------------------------------------------------------------------|
D|--14-14-14-14-14-14-14-14--11-11-11-11-11-11-11-11---9-9-9---------------| X3
A|--12-12-12-12-12-12-12-12--9--9--9--9--9--9--9--9----7-7-7---------------|
E|--12-12-12-12-12-12-12-12--9--9--9--9--9--9--9--9----7-7-7---------------|

E|-------------------------------------------------------------------------|
B|-------------------------------------------------------------------------|
G|-------------------------------------------------------------------------|
D|--14-14-14-14-14-14-14-14--11-11-11-11-11-11-11-11-----11-11--11-11-11---|
A|--12-12-12-12-12-12-12-12--9--9--9--9--9--9--9--9------9--9---9--9--9----|
E|--12-12-12-12-12-12-12-12--9--9--9--9--9--9--9--9------9--9---9--9--9----|

E|----------------------------------------------------------------------------------------------|
B|----------------------------------------------------------------------------------------------|
G|----------------------------------------------------------------------------------------------|
D|-----2-----3-----4-----3-----2-------2-----3-----4-----3-----2-------2-----3------4-----3-----|
A|----------------------------------------------------------------------------------------------|
E|-2-2---2-2---2-2---222---2-2---2-2-2---2-2---2-2---222---2-2---2-2-2---2-2---2-2----222-------|
   x x   x x   x x   xxx   x x   x x x   x x   x x   xxx   x x   x x x   x x   x x    xxx

E|--------------------------------------------------------------------|
B|--------------------------------------------------------------------|
G|--------------------------------------------------------------------|
D|------2-------2-----3-------4-4-2-2-----2-2-------------------------|
A|------------------------------------4-4-----4-4-2-2-----------------|
E|--2-2---2-2-2---2-2---2-2---------------------------5-5-2-2---------|
    x x   x x x   x x   x x   x x x x x x x x x x x x x x x x

E|---------------------------|
B|---------------------------|
G|---------------------------|
D|---------------------------| X3
A|-4-4--4-4-4--4-4-4-4-------|
E|-2-2--2-2-2--2-2-2-2-------|

E|-------------------------|
B|-------------------------|
G|-------------------------|
D|------5-5-5--4-4-4-4-----|
A|-4-4--3-3-3--2-2-2-2-----|
E|-2-2---------------------|
Composição de Babymetal
Colaboração e revisão:
  • Leandro Kitsune
118 exibições
    • ½ Tom
    • Am
    • Bbm
    • Bm
    • Cm
    • C#m
    • Dm
    • Ebm
    • Em
    • Fm
    • F#m
    • Gm
    • G#m
  • Adicionar à lista

    0 comentários

    Ver todos os comentários

    Conseguiu tocar?

    0 Tocaram 0 Ainda não

    Grave um vídeo tocando Song 4 e nos envie!

    00:00 / 00:00
    Outros vídeos desta música
    Repetir Qualidade Automático
    Outros vídeos desta música
    00:00 / 00:00
    Automático

    Cifra Club Pro

    Aproveite o Cifra Club com benefícios exclusivos e sem anúncios
    Cifra Club Pro
    Aproveite o Cifra Club com benefícios exclusivos e sem anúncios
    OK