Cifra Club

Aprenda

Capitães de Areia

Baco Exu do Blues

Cifra: Principal (violão e guitarra)
Tom: G
 Introdução:

E|-----------------------|
B|-----------------------|
G|-----------------------|(3X)
D|-3-3-3-3--2--3--7--3---|
A|-3-3-3-3--2--3--7--3---|
E|-2-2-2-2--0--2--5--2---|
                                  (3x) essas duas partes                                        
E|-----------------------|
B|-----------------------|
G|-3b-3-2-3-2------------|
D|-3b-3-2-3-2-3----------|
A|-2b-2-0-2-0-3----------|
E|------------2----------| 


E|-----------------------|
B|-----------------------|
G|-----------------------|(3X)
D|-----------------------|
A|-----------------------|
E|-2--0--2--5--2---------|

E|-----------------------|
B|-----------------------|
G|-----------------------|
D|-----------------------|
A|-2b--2--0--2--0--------|
E|-----------------2-----|


Parte 1 de 1

 
E|-----------------------|
B|-----------------------|
G|-----------------------|
D|-3-3-3-3--2--3--7--3---|
A|-3-3-3-3--2--3--7--3---|
E|-2-2-2-2--0--2--5--2---|

Somos homens e mulheres livres

E|-----------------------|
B|-----------------------|
G|-----------------------|
D|-3-3-3-3--2--3--7--3---|
A|-3-3-3-3--2--3--7--3---|
E|-2-2-2-2--0--2--5--2---|

Somos homens e mulheres livres

E|-----------------------|
B|-----------------------|
G|-----------------------|
D|-3-3-3-3--2--3--7--3---|
A|-3-3-3-3--2--3--7--3---|
E|-2-2-2-2--0--2--5--2---|

Somos homens e mulheres livres

E|-----------------------|
B|-----------------------|
G|-----------------------|
D|-3-3-3-3--2--3--7--3---|
A|-3-3-3-3--2--3--7--3---|
E|-2-2-2-2--0--2--5--2---|

Somos homens e mulheres livres

E|-----------------------|
B|-----------------------|
G|-3b-3-2-3-2------------|
D|-3b-3-2-3-2-3----------|
A|-2b-2-0-2-0-3----------|
E|------------2----------|

E|-----------------------|
B|-----------------------|
G|-----------------------|
D|-3-3-3-3--2--3--7--3---|
A|-3-3-3-3--2--3--7--3---|
E|-2-2-2-2--0--2--5--2---|

Somos homens e mulheres livres

E|-----------------------|
B|-----------------------|
G|-----------------------|
D|-3-3-3-3--2--3--7--3---|
A|-3-3-3-3--2--3--7--3---|
E|-2-2-2-2--0--2--5--2---|

Somos homens e mulheres livres

E|-----------------------|
B|-----------------------|
G|-----------------------|
D|-3-3-3-3--2--3--7--3---|
A|-3-3-3-3--2--3--7--3---|
E|-2-2-2-2--0--2--5--2---|

Somos homens e mulheres livres

E|-----------------------|
B|-----------------------|
G|-----------------------|
D|-3-3-3-3--2--3--7--3---|
A|-3-3-3-3--2--3--7--3---|
E|-2-2-2-2--0--2--5--2---|

Somos homens e mulheres livres

E|----------------------|
B|----------------------|
G|-3b-3-2-3-2-----------|
D|-3b-3-2-3-2-3---------|
A|-2b-2-0-2-0-3---------|
E|------------2---------|



Carrego comigo coragem de Erê

Carrego comigo coragem de Erê

Carrego comigo coragem de Erê

Carrego comigo coragem de Erê

Carrego comigo coragem, dinheiro e bala

Palavras de Pedro Bala

Palavras de Pedro Bala

Carrego comigo coragem, dinheiro e bala

Palavras de Pedro Bala

Palavra de Pedro Bala

Carrego comigo coragem, dinheiro e bala

Palavras de Pedro Bala

Palavra de Pedro Bala

Carrego comigo coragem, dinheiro e bala

Dinheiro e bala

Macu-Macu-Macu-Macu-Macunaima

Macu-Macu-Macu-Macu-Macunaima


E|-9-9-9-9-7-6~----------|
B|---------------7-------|
G|-----------------------|
D|-----------------------|
A|-----------------------|
E|-----------------------|

Vi os prédios subindo


E|-9-9-9-9-7-6~----------|
B|---------------7-------|
G|-----------------------|
D|-----------------------|
A|-----------------------|
E|-----------------------|

A mata acabando


E|-----------------------|
B|-----------------------|
G|-----------------------|
D|-3-3-3-3--2--3---------|
A|-3-3-3-3--2--3---------|
E|-2-2-2-2--0--2---------|

Aproveitei e arranhei o céu


E|-----------------------|
B|-----------------------|
G|-----------------------|
D|-3-3-3-3--2--3---------|
A|-3-3-3-3--2--3---------|
E|-2-2-2-2--0--2---------|

Aproveitei e arranhei o céu


E|-9-9-9-9-7-6~----------|
B|---------------7-------|
G|-----------------------|
D|-----------------------|
A|-----------------------|
E|-----------------------|

Vi minha raça sumindo


E|-12-12-12-12-10p-9h-10~--|
B|-------------------------|
G|-------------------------|
D|-------------------------|
A|-------------------------|
E|-------------------------|

Vocês nos matando


E|-----------------------|
B|-----------------------|
G|-----------------------|
D|-3-3-3-3--2--3---------|
A|-3-3-3-3--2--3---------|
E|-2-2-2-2--0--2---------|

Aproveitei e levei todos pro céu


E|-----------------------|
B|-----------------------|
G|-----------------------|
D|-3-3-3-3--2--3---------|
A|-3-3-3-3--2--3---------|
E|-2-2-2-2--0--2---------|

Aproveitei e levei todos pro céu


Somos homens e mulheres livres

Somos homens e mulheres livres

Somos homens e mulheres livres

Somos homens e mulheres livres

Somos homens e mulheres livres

Somos homens e mulheres livres

Somos homens e mulheres livres

Livres!


As vozes dos bêbados

Risadas gritos

Garrafas quebrando, as drogas, os conflitos

As luzes da cidade, batuque, tiro

Gemidos, briga é um caos tão bonito

As vozes dos bêbados

Risadas gritos

Garrafas quebrando, as drogas, os conflitos

As luzes da cidade, batuque, tiro

Gemidos, briga é um caos tão bonito


Eu tô brindando e assistindo

Um homofóbico xenófobo apanhando de

Um gay nordestino

Eu tô rindo

Vendo uma mãe solteira espancando o PM

Que matou seu filho

Me olho no espelho, vejo caos sorrindo

O karma sorrindo

Eu nasci no dia que viram a raiva parindo

Eu nasci no dia que viram a raiva parindo

Onde cidadãos de bem queimam terreiros

Espancam mulheres e odeiam os pretos

Odeiam o gueto, matam por dinheiro

Eu sou caos, eu sou vilão


E|-------------------------|
B|-7~-10~-12~-15--17--18b/-|
G|-------------------------|
D|-------------------------|
A|-------------------------|
E|-------------------------|

Onde cidadãos de bem queimam terreiros

Espancam mulheres e odeiam os pretos

Odeiam o gueto, matam por dinheiro

Eu sou caos, eu sou vilão

Eu nasci no dia que viram a raiva parindo

Onde cidadãos de bem queimam terreiros

Espancam mulheres e odeiam os pretos

Odeiam o gueto, matam por dinheiro

Eu sou caos, eu sou vilão

Somos homens e mulheres livres.
Colaboração e revisão:
  • renan
2.530 exibições
    • ½ Tom
    • A
    • Bb
    • B
    • C
    • Db
    • D
    • Eb
    • E
    • F
    • F#
    • G
    • Ab
  • Adicionar à lista

    0 comentários

    Mostrar mais comentários

    Conseguiu tocar?

    1 Tocaram 0 Ainda não

    Grave um vídeo tocando Capitães de Areia e mande pra gente!

    00:00 / 00:00
    outros vídeos desta música
    repetir qualidade Automático
    Outros vídeos desta música
    00:00 / 00:00
    Automático

    Cifra Club Pro

    Aproveite o Cifra Club com benefícios exclusivos e sem anúncios
    7 dias grátis
    Cifra Club Pro
    Aproveite o Cifra Club com benefícios exclusivos e sem anúncios
    7 dias grátis
    OK