Cifra Club

Aprenda

Feel Like Makin' Love

Bad Company

Cifra: Principal (violão e guitarra)
tom: G
[Intro]

    D           C/D       G/D  G4/D  G/D 
E|-10-10---10---8-8---8---7---7h8--7---7-7---|
B|-10-10---10---8-8---8---8---8----8---8-8---|
G|-11-11---11---9-9---9---7---7----7---7-7---|
D|-0--0----0----0-0---0---0---0----0---0-0---|
A|-------------------------------------------|
E|-------------------------------------------|

    D           C/D       G/D  G4/D  G/D  D
E|-10-10---10---8-8---8---7---7h8--7---2-----|
B|-10-10---10---8-8---8---8---8----8---3-----|
G|-11-11---11---9-9---9---7---7----7---2-----|
D|-0--0----0----0-0---0---0---0----0---0-----|
A|-------------------------------------------|
E|-------------------------------------------|

D                   G                       D  G
Baby, when I think about you, I think about love
D                         G                D  G
Darling, I don't live without you and your love

G/B  G/C  D                G            D       G
If  I   had those golden dreams of my yesterday
D                       G                     D           G
I would wrap you in the heaven, but they lay dying on the way

                 C  D   C  D   C  D
Feel like makin'
C         G      C  D   C  D   C  D
Feel like makin' love
C         G      C  D   C  D   C  D
feel like makin' love
C         G      C  D   C  D   C  D
Feel like makin' love
          C      G/B  G/C  D
feel like makin' love to  you

D                  G                      D  G
Baby, if I think about you, I think about love
D                     G                        D  G
Darling, if I live without you, I live without love
G/B  G/C  D                G                  D   G
And if I had the sun and moon, and they were shining
        D                       G              D  G
I would give you both night and day, love satisfying

                 C  D   C  D   C  D
Feel like makin'
C         G      C  D   C  D   C  D
Feel like makin' love
C         G      C  D   C  D   C  D
feel like makin' love
C         G      C  D   C  D   C  D
Feel like makin' love
          C      G/B  G/C  D
feel like makin' love to  you

[Solo]
E|--------------------------------------|
B|-3---3-5-8---7-8-10/12---10/12\10-8---|
G|-2-------7-----7--9/11---9--------7---|
D|-----4-4-----7------------------------|
A|--------------------------------------|
E|--------------------------------------| (2x)

D                  G                 D    G
If I had those golden dreams of my yesterday
D                         G                          D        G
I would wrap you in the heaven, but they lay dying on the way

                 C  D  C  D  C  D
Feel like makin'
C         G      C  D  C  D  C  D
Feel like makin' love
C         G      C  D   C  D   C  D
feel like makin' love
C         G      C  D  C  D  C  D
Feel like makin' love
          C      G/B  G/C  D
feel like makin' love to  you
Composição de Ralphs
Colaboração e revisão:
10.399 exibições
    • ½ Tom
    • A
    • Bb
    • B
    • C
    • Db
    • D
    • Eb
    • E
    • F
    • F#
    • G
    • Ab
  • Adicionar à lista

    0 comentários

    Ver todos os comentários

    Conseguiu tocar?

    1 Tocaram 0 Ainda não

    Grave um vídeo tocando Feel Like Makin' Love e nos envie!

    00:00 / 00:00
    Outros vídeos desta música
    Repetir Qualidade Automático
    Outros vídeos desta música
    00:00 / 00:00
    Automático

    Cifra Club Pro

    Aproveite o Cifra Club com benefícios exclusivos e sem anúncios
    Cifra Club Pro
    Aproveite o Cifra Club com benefícios exclusivos e sem anúncios
    OK