Cifra Club

Aprenda

Black Sabbath

Black Sabbath

Cifra: Principal (violão e guitarra)
Tom: Bb
E|-------------------------------------------|
B|-------------------------------------------|
G|-------------------------------------------|
D|---------5-----------------------5---------|
A|--------------4h5p4h5p4----------------4---|
E|-3-----------------------3-----------------|

E|------------------------------|
B|------------------------------|
G|------------------------------|
D|---------------5--------------|
A|---------------------------4--|
E|-3----------------------------|

E|------------------------------|
B|------------------------------|
G|------------------------------|
D|-------------5----------------|
A|--------------------------4---|
E|-3----------------------------|

E|-------------------------------------------|
B|-0-----------------------------------------|
G|-0-----------------------------------------|
D|-0-----------------------0-1----0-------0--|
A|---------------------1-3-----3-----1-3-----|
E|-3-------------3-3-3-----------------------|

E|-------------------------------------------------------------|
B|-------------------------------------------------------------|
G|-------------------------------------------------------------|
D|-----------------------------------------0-1-----0-------0---|
A|-5--5--5---5--5---5---5---5----------1-3------3-----1-3------|
E|-3--3--3---3--3---3---3---3---3-3-3--------------------------|

E|--------------------------------------------------------|
B|--------------------------------------------------------|
G|--------------------------------------------------------|
D|--------------------------------------------------------|
A|-5--5--5--5--5--5--5--5--5----5--5--5--5--5--5--5--5--5-|
E|-3--3--3--3--3--3--3--3--3----3--3--3--3--3--3--3--3--3-|

E|----------------------------------------|
B|----------------------------------------|
G|----------0------------0----------------|
D|----------0------------0--------5p3-----|
A|-5---------------5--------------------5-|
E|-3--------3------3-----3----------------|

E|----------3------------3----------------|
B|----------3------------3----------------|
G|-4--------3------4-----3----------------|
D|-5--------3------5-----3----------------|
A|-5--------1------5-----1----------------|
E|-3---------------3----------------------|

[Solo]

E|------------------------------------------------------------|
B|-----------------------------------------------------3------|
G|--------------------------------------3--------5b-----------|
D|-5-----(5)b----5---5-----3------3h5-------------------------|
A|------------------------------------------------------------|
E|------------------------------------------------------------|

E|---------------------------3---------------------------------|
B|-3-----------------3-------3---------3------6------8----8b---|
G|--------------5b------------------5b----8b-----10b-----------|
D|-------------------------------------------------------------|
A|-------------------------------------------------------------|
E|-------------------------------------------------------------|

E|---------15-------15-------------------------18b------18b----|
B|------15-----18b------------18b---18b------15----------------|
G|-17b---------------------------------------------------------|
D|-------------------------------------------------------------|
A|-------------------------------------------------------------|
E|-------------------------------------------------------------|

E|-15--18p15----18p15------18b----15h18p15-------15-15------15-|
B|-----------18-------18------------------18--18-------18b-----|
G|-------------------------------------------------------------|
D|-------------------------------------------------------------|
A|-------------------------------------------------------------|
E|-------------------------------------------------------------|

E|-15--------------15--------15--------15----------15--------15|
B|----18-15-----15--------15--------15----------15--------15---|
G|----------17b-------17b-------17b----------17b------17b------|
D|-------------------------------------------------------------|
A|-------------------------------------------------------------|
E|-------------------------------------------------------------|

E|--------15-------15------------------15----------------------|
B|-----15-------15------15~---------15---------15--18b----(18)-|
G|-17b------17b---------------1417b-------17-18----------------|
D|-------------------------------------------------------------|
A|-------------------------------------------------------------|
E|-------------------------------------------------------------|

E|-----------------------18b-------(18)-18p15-----18b--15h18p15|
B|------18b------(18)------------------------------------------|
G|-15-----------------15----------------------(17)-------------|
D|-------------------------------------------------------------|
A|-------------------------------------------------------------|
E|-------------------------------------------------------------|

E|-----15h18p15----18p15----15h18p15h18-15h18p15h18-15h18p15h18|
B|-18-----------18-------18------------------------------------|
G|-------------------------------------------------------------|
D|-------------------------------------------------------------|
A|-------------------------------------------------------------|
E|-------------------------------------------------------------|

E|-15h18p15h18-18b---18b---(18)-|
B|------------------------------|
G|------------------------------|
D|------------------------------|
A|------------------------------|
E|------------------------------|

E|-18p15-----------15-15--------|
B|-------18-18-18b-------18-15--|
G|------------------------------|
D|------------------------------|
A|------------------------------|
E|------------------------------|

E|------------------15-------------------------|
B|---------------15----18p15-------------------|
G|-17--15b~--17b-------------17--15b~----------|
D|------------------------------------17p15h17-|
A|---------------------------------------------|
E|---------------------------------------------|

E|-----------------15--------15--------15-|
B|--------------15--------15--------15----|
G|-------15-17b-------17b-------17b-------|
D|-15h17----------------------------------|
A|----------------------------------------|
E|----------------------------------------|

E|--------------------|
B|-18b---18b----18b---|
G|--------------------|
D|--------------------|
A|--------------------|
E|--------------------|

E|---------------------------------------|
B|--0--------------------3---------------|
G|--0--------------------3---------------|
D|--0--------------------3---------------|
A|---------------------------------------|
E|--3--------------------3---------------|

E|--------------------|
B|-0--0-0-0-0-0-0-0---|
G|-0--0-0-0-0-0-0-0---|
D|-0--0-0-0-0-0-0-0---|
A|--------------------|
E|-3--3-3-3-3-3-3-3---|

E|-3-----3-3-3-3-----3-3-3--|
B|-3-----3-3-3-3-----3-3-3--|
G|-3-----3-3-3-3-----3-3-3--|
D|-3-----3-3-3-3-----3-3-3--|
A|--------------------------|
E|--------------------------|

E|----------------------------------|
B|----------------------------------|
G|-4--------------------------------|
D|-5--------------------------------|
A|-5--------------------------------|
E|-3--------------------------------|

E|-3--3--3-3-----------------------------|
B|-3--3--3-3-----------------------------|
G|-4--4--4-4---------4-4-4---4-4--4-4-4--|
D|-5--5--5-5---------5-5-5---5-5--5-5-5--|
A|-5--5--5-5---------5-5-5---5-5--5-5-5--|
E|-3--3--3-3---------3-3-3---3-3--3-3-3--|

E|-3-3-3-3-3-3-3-3----|
B|-3-3-3-3-3-3-3-3----|
G|-3-3-3-3-3-3-3-3----|
D|-3-3-3-3-3-3-3-3----|
A|-1-1-1-1-1-1-1-1----|
E|--------------------|

E|----------------------------|
B|----------------------------|
G|-4--------------------------|
D|-5--------------------------|
A|-5--------------------------|
E|-3--------------------------|

E|--------------------------------|
B|--------------------------------|
G|--------4-4-4-4-----------------|
D|--------5-5-5-5-----------------|
A|--------5-5-5-5-----------------|
E|--------3-3-3-3-----------------|

Composição de Bill Ward / Geezer Butler / Ozzy Osbourne / Tony Iommi
Colaboração e revisão:
  • Lucas Kappaun
  • marcelo padilha
  • André Rangel
111.786 exibições
    • ½ Tom
    • A
    • Bb
    • B
    • C
    • Db
    • D
    • Eb
    • E
    • F
    • F#
    • G
    • Ab
  • Adicionar à lista

    0 comentários

    Mostrar mais comentários

    Conseguiu tocar?

    10 Tocaram 0 Ainda não

    Grave um vídeo tocando Black Sabbath e mande pra gente!

    00:00 / 00:00
    outros vídeos desta música
    repetir qualidade Automático
    Outros vídeos desta música
    00:00 / 00:00
    Automático

    Cifra Club Pro

    Aproveite o Cifra Club com benefícios exclusivos e sem anúncios
    7 dias grátis
    Cifra Club Pro
    Aproveite o Cifra Club com benefícios exclusivos e sem anúncios
    7 dias grátis
    OK