Cifra Club

Aprenda

Symptom Of The Universe

Black Sabbath

Cifra: Principal (violão e guitarra)
Tom: E
Tune down 1 1/2 steps (C#)

To clear up any confusion, this song is played in the E position, 
but the guitar is tuned down 1/2 step, so the song is based in F#

|-----------------------------------------------------------
|-----------------------------------------------------------
|-----------------------------------------------------------
|---------------3----3----------------------4---3--3------
|---------------1----1----------------------2---1--1------
|-0-0-0-0-0-0-0---------------0-0-0-0-0-0-0-----------------

P.M.------------              P.M.-----------

|----------------------------------------------------------
|----------------------------------------------------------
|----------------------------------------------------------
|----7-----3-----2-------------------7-----3-----2---------
|----5-----1-----0-------------------5-----1-----0---------
|---------------------------------------------------------- 

|----------------------------------------------------------------
|----------------------------------------------------------------
|----------------------------------------------------------------
|---4-5-2-4---2-----2---------------4-5-2-4---2-----2------------
|-----------5---4-5---5-4-2-----------------5---4-5---5-4-2------
|-2-------------------------5-----2-------------------------5----

|--------------------------------------------------------------
|--------------------------------------------------------------
|--------------------------------------------------------------
|---------------------------1h2p1---2h4-4h5p4------------------
|-2--2-2-2-2-2--2-2-2-2-2h4-------2-----------5-2--2-2-2-2-2---
|--------------------------------------------------------------

|--------------------------------------------------------------
|--------------------------------------------------------------
|--4-----------------------------------------------------------
|--4--slowly move hand up fretboard, imitating a slideing sound
|--2-----------------------------------------------------------
|--------------------------------------------------------------

|---------------------------------------------------------------------------
|-----------2-------5-------4-------4-------------2-------5-------4-------4-
|-------------2---------------4---------------------2---------------4-------
|-------4-------4-------4-------4-------------4-------4-------4-------4-----
|---------------------------------------------------------------------------
|-1/2-----------------------------------1/2---------------------------------

|--4---4---------------------------------------------
|----7----5-7-5-4-5---4-5-2--------------------------
|-------------------6-------4---2-1---2---1----------
|---------------------------------------------4------
|----------------------------------------------------
|----------------------------------------------------

|----5---4-------5---4----------5---4------2--------------
|----------7-----------7--------------7--2---5-4-2--------
|--6---6-------6---6----------6---6----------------4p2----
|------------------------------------------------------4--
|---------------------------------------------------------
|---------------------------------------------------------

|----------------------------------------------------
|----------------------------------------------------
|--1h2p1---1---------1-2---1-2---1-2-1---1-----------
|--------4---2-4---4-----4-----4-------4---4-2-------
|----------------------------------------------4-----
|----------------------------------------------------

|----------------------------------------------------------------------
|----------------------------------------------------------------------
|------------1------------------------------------1--------/6-4-2-1----
|------1h2-4---4---2-1-2-4-2-4-4------------1h2-4---4--2-4----------4--
|--4------------------------------------4------------------------------
|----------------------------------------------------------------------

|------4-----4-5-454---4---------------------------
|----7---5-7---------7-----7-454-------------------
|--6---------------------6-------6-----------------
|--------------------------------------------------
|--------------------------------------------------
|--------------------------------------------------
Composição de Bill Ward / Geezer Butler / Ozzy Osbourne / Terence Butler / Tony Iommi
38.319 exibições
    • ½ Tom
    • A
    • Bb
    • B
    • C
    • Db
    • D
    • Eb
    • E
    • F
    • F#
    • G
    • Ab
  • Adicionar à lista

    0 comentários

    Mostrar mais comentários

    Conseguiu tocar?

    4 Tocaram 1 Ainda não

    Grave um vídeo tocando Symptom Of The Universe e mande pra gente!

    00:00 / 00:00
    outros vídeos desta música
    repetir qualidade Automático
    Outros vídeos desta música
    00:00 / 00:00
    Automático

    Cifra Club Pro

    Aproveite o Cifra Club com benefícios exclusivos e sem anúncios
    7 dias grátis
    Cifra Club Pro
    Aproveite o Cifra Club com benefícios exclusivos e sem anúncios
    7 dias grátis
    OK