Cifra Club

Aprenda

Sabbath Bloody Sabbath

Black Sabbath

Cifra: Principal (violão e guitarra)
Tom: G
         P.M         P.M
         |--|        |--|
E|--------------------------------------------------------------|
B|--------------------------------------------------------------|
G|--------------------------------------------------------------|
D|--5/7------7--5/7------7---3--5--7--10------------------------|
A|--3/5--5-5-5--3/5--5-5-5---1--3--5--8-------------------------|
E|--------------------------------------------------------------|

E|--|--12----12--12-----12--12-|-12--12-12--12-12---12---------
B|--|--12----12--12-----12--12-|-12--12-12--12-12---12---------
G|--|--12----12--12-----12--12-|-12--12-12--12-12---12---------
D|--|--10----10--10-----10--10-|-12--12-12--12-12---12---------
A|--|--------------------------|-10--10-10--10-10---10---------
E|--|--------------------------|-------------------------------

Riff 1:
E|----|-----------------|-------------|-----------------------
B|----|-----------------|-------------|-----------------------
G|-7--|-5----7----5-----|-------------|-------------7---------
D|----|--------------7--|--5---7----9-|-------5-7/9---9-------
A|----|-----------------|-------------|--5h7------------------
E|----|-----------------|-------------|-----------------------

Riff 2:                            Riff 3:
E|----|-----------------------------|-------|---------------------|
B|----|-----------------------------|-------|---------------------|
G|----|------------------7------7---|-7-7/9-|---------------------|
D|----|------5---7-/-9-----7/9------|-------|--7/9-----7-----5----|
A|--5-|--7--------------------------|-------|---------------------|
E|----|-----------------------------|-------|---------------------|

E|-5---5-5----5-|--5--5----5--5-|-2--0---2-|-0----2--0------
B|-5---5-5----5-|--5--5----5--5-|-3--2---3-|-2----3--2------
G|-5---5-5----5-|--5--5----5--5-|-2--2---2-|-2----2--2------
D|-5---5-5----5-|--5--5----5--5-|-0--0---0-|-0----0--0------
A|-7---7-7--7-7-|--7--7----7--7-|----------|----------------
E|-5---5-5--5-5-|--5--5----5--5-|----------|----------------

Solo:

E|------------|------------------|--------------------------
B|-10/12-10-8-|-10/12-10-8-------|--7-----10-7--------------
G|------------|--------------9---|----9-7------7-9~~--------
D|------------|------------------|--------------------------
A|------------|------------------|--------------------------
E|------------|------------------|--------------------------

E|------------|------------------|--------------------------
B|---/3--2----|/3----------------|--------------------------
G|---/4--2-4--|/4----2-----------|--------2-----------------
D|---------5--|--------5---2-----|--4-2-0---4-0-2-----------
A|------------|------------------|--------------------------
E|------------|------------------|--------------------------

E|-------------|------------|-10^--10-7---------|-----------
B|-10^p8-10----|-10^p8-10---|-----------10^p8---|-----------
G|----------9--|----------9-|-----------------9-|---9-------
D|-------------|------------|-------------------|-----------
A|-------------|------------|-------------------|-----------
E|-------------|------------|-------------------|-----------

E|--------------|---------------|--10^--10-7---------|------|
B|-10^-^-^p8--8-|-10^-^-^-^-^p8-|------------10^p8---|------|
G|--------------|---------------|------------------9-|--9---|
D|--------------|---------------|--------------------|------|
A|--------------|---------------|--------------------|------|
E|--------------|---------------|--------------------|------|

E|-15^-^-^p12---|-15^-^-^-^-^p12|--------------------|------|
B|--------------|---------------|--------------------|------|
G|--------------|---------------|--------------------|------|
D|--------------|---------------|--------------------|------|
A|--------------|---------------|--------------------|------|
E|--------------|---------------|--------------------|------|

E|-------------------------|------------------||-------------------|
B|-------------------------|------------------||-------------------|
G|-------------------------|------------------||-------------------|
D|--7--7--5--7---7--5--7-7-|-9--7--9--7--9--7-||-9-7-9-7-5-7-4-----|
A|-------------------------|-7--5--7--5--7--5-||-7-5-7-5-3-5-2-----|
E|-------------------------|------------------||-------------------|

E|----------------------------------|
B|----------------------------------|
G|----------------------------------|
D|----------------------------------|
A|--2-2-5-4-5-4-5-2---2-5-4-5-6-----|
E|--0-0-3-2-3-2-3-0---0-3-2-3-4-----|

E|---------------------------------------------|
B|---------------------------------------------|
G|---------------------------------------------|
D|--9--9--9---7---9--9--9---7--5--7--4---------|
A|--7--7--7---5---7--7--7---5--3--5--2---2/5---|
E|---------------------------------------------|

E|--------------------------------------|
B|--------------------------------------|
G|--------------------------------------|
D|--------------------------------------|
A|-----0--2--2--2p0-----2--2-----0------|
E|--2----------------2--------2---------|

Outro Solo:
E|------------|----------7----7-----------------------------
B|------------|-----------------10^^-10^^-10^^-10^^^-10^^^--
G|-----7------|------7-9^--9^-------------------------------
D|-7h9---9-7--|--7h9----------------------------------------
A|------------|---------------------------------------------
E|------------|---------------------------------------------

E|---------------------------------|------------------------
B|-7-------------------------------|------------------------
G|---(7)-9p7---7-7h9--7----7-------|------------------------
D|-----------9----------9----9p7---|-7-7h9-7h9-7h9----------
A|-------------------------------9-|------------------------
E|---------------------------------|------------------------

E|-----------------------|----------------------------------
B|-----------------------|----------------------------------
G|-----------------------|----------------------------------
D|--(9)------------------|----------------------------------
A|----------------7p5----|--5-------------------------------
E|----------------7------|---------7------------------------
Composição de Geezer Butler / Ozzy Osbourne / Tony Iommi
Colaboração e revisão:
  • Gabriel
93.941 exibições
    • ½ Tom
    • A
    • Bb
    • B
    • C
    • Db
    • D
    • Eb
    • E
    • F
    • F#
    • G
    • Ab
  • Adicionar à lista

    0 comentários

    Mostrar mais comentários

    Conseguiu tocar?

    15 Tocaram 2 Ainda não

    Grave um vídeo tocando Sabbath Bloody Sabbath e mande pra gente!

    00:00 / 00:00
    outros vídeos desta música
    repetir qualidade Automático
    Outros vídeos desta música
    00:00 / 00:00
    Automático

    Cifra Club Pro

    Aproveite o Cifra Club com benefícios exclusivos e sem anúncios
    7 dias grátis
    Cifra Club Pro
    Aproveite o Cifra Club com benefícios exclusivos e sem anúncios
    7 dias grátis
    OK