Cifra Club

Fairies Wear Boots

Black Sabbath

Cifra: Principal
exibições 20.997
Tom: G
Gtr I (E A D G B E) - 'Gtr. 1'
Gtr II (E A D G B E) - 'Gtr. 2'
Gtr III (E A D G B E) - 'Gtr. 3'

  Q=124
 4/4
  Gtr I
  E S S S E S S S S S +S  S S S   E S S S E S S S S S +S  S S S
|-------------------------------|-------------------------------|
|-------------------------------|-------------------------------|
|-------3---------3-------------|-------3---------3-------------|
|-----3---5-5---3---5-(5)-5-3h5-|-----3---5-5---3---5-(5)-5-3h5-|
|---5---------5-----------------|---5---------5-----------------|
|-3-----------------------------|-3-----------------------------|


  E S S S E S S S S S +S  S S S   E S S S E S S S S S +S  S S S
|-------------------------------|-------------------------------|
|-------------------------------|-------------------------------|
|-------3---------3-------------|-------3---------3-------3-----|
|-----3---5-5---3---5-(5)-5-3h5-|-----3---5-5---3---5-(5)---5---|
|---5---------5-----------------|---5---------5-----------------|
|-3-----------------------------|-3-----------------------------|


                          ~~~~~~~~
  E E S S S S S S S T E T E   +E  E S S S S S S S T E T E
|---------------------------|------------------------------|
|---1-1p0---0---------------|-----1-1p0---0----------------|
|-2-------2-----2p0-0h2-0h2-|-(2)-------2-----2p0-0h2-0h2--|
|---------------------------|------------------------------|
|---------------------------|------------------------------|
|---------------------------|------------------------------|


  S S E S S S S S E T E T E
|---------------------------|
|-------1p0---0-------------|
|-----0-----2---2p0-0h2-0h2-|
|-0h2-----------------------|
|---------------------------|
|---------------------------|


  S S S S S S S S S S E E E    E E  S  S E E E S E S
|----------------------------|---7-10s15s7-7-5-5s7-7--|
|-1p0---1p0---1p0---1p0-0----|------------------------|
|-----2-----2-----2-------2/-|-4-4--7s12s4-4-2-2s4----|
|----------------------------|------------------------|
|----------------------------|------------------------|
|----------------------------|------------------------|


  S S  S S S  S S S S S S S E E   E  E  S  S E E E S E S
|-----10-----12-----7-----5-5s7-|-7-10-10s15s7-7-5-5s7---|
|-------------------------------|------------------------|
|-4s7----7s9----9s4---4s2---2s4-|-4--7--7s12s4-4-2-2s4---|
|-------------------------------|------------------------|
|-------------------------------|------------------------|
|-------------------------------|------------------------|


  E.  S  +E   E  +S   S  E  S  S E
|-7--10-(10)-12-(12)-12s15-12s10----|
|-----------------------------------|
|-4---7--(7)--9--(9)--9s12--9s=7----|
|-----------------------------------|
|-----------------------------------|
|--------------------------------0--|


  Gtr II
                                                                  |-3--|
  E. S +Q   H      E. S +Q   H      E. S +Q   H      E. S +Q   Q  E E  E
|----------------|----------------|----------------|----------------------|
|----------------|----------------|----------------|----------------------|
|-9--7-(7)-------|----------------|-9--7-(7)-------|----------------------|
|-9--7-(7)-------|-9--7-(7)-------|-9--7-(7)-------|-9--7-(7)-------9-10--|
|-7--5-(5)-------|-9--7-(7)-------|-7--5-(5)-------|-9--7-(7)-------9-10--|
|----------------|-7--5-(5)-------|----------------|-7--5-(5)-------7--8--|


   S S S  S S  S    S S  E  Q      +E
|---------------------9----------------|
|-------------------9---12-12b14r=(12)-|
|-----------9-11b13--------------------|
|-11---9h11----------------------------|
|-11-----------------------------------|
|--9-----------------------------------|


   S S  E     E.     +S    S S S  S S  S S S
|------12b14-12b14==(12)r-12-9------9--------|
|-12-9-------------------------9-12---12-9-9-|
|--------------------------------------------|
|--------------------------------------------|
|--------------------------------------------|
|--------------------------------------------|


   S    S S  S  E     E     +E   S    S S S  S S
|---------9-----------------------------9--------|
|-------9---12------------------------9---9-12-9-|
|-11b13--------11b13-11b13r(11)-11b13------------|
|------------------------------------------------|
|------------------------------------------------|
|------------------------------------------------|


                                                 ~
   X     +X   T S  T T  S S  S    S S  S S  E    Q    E. S +Q   H
|-----------------------------------9---------------|----------------|
|---------------------------------9---12-9----------|----------------|
|-11b13r(11)-11p9-11p9----9-11b13----------11b13-9--|-9--7-(7)-------|
|----------------------11---------------------------|-9--7-(7)-------|
|---------------------------------------------------|-7--5-(5)-------|
|---------------------------------------------------|----------------|


                                                     Gtr III
  E. S +Q   H      E. S +Q   H      E. S +Q   H      Q  Q  E Q  E
|----------------|----------------|----------------|---------3----|
|----------------|----------------|----------------|---------3----|
|----------------|-9--7-(7)-------|----------------|---------3----|
|-9--7-(7)-------|-9--7-(7)-------|-9--7-(7)-------|---------3----|
|-9--7-(7)-------|-7--5-(5)-------|-9--7-(7)-------|-5--8--5----3-|
|-7--5-(5)-------|----------------|-7--5-(5)-------|-3--6--3----1-|


  E E Q  E Q  E   E E Q  E Q  E   E E Q  E Q  E   E E E E E Q  E
|----------3----|----------3----|----------3----|----------------|
|----------3----|----------3----|----------3----|----------------|
|----------3----|----------3----|----------3----|----------------|
|----------3----|----------3----|----------3----|-----------3----|
|-5-5-8--5----3-|-5-5-8--5----3-|-5-5-8--5----3-|-5-5-8---5-3----|
|-3-3-6--3----1-|-3-3-6--3----1-|-3-3-6--3----1-|-3-3-6-0-3-3--3-|


  E E E E E Q  E   E E E E E Q  E   E E E E E Q  E   E E E E E Q  E
|----------------|----------------|----------------|----------------|
|----------------|----------------|----------------|----------------|
|----------------|----------------|----------------|----------------|
|-----------3----|-----------3----|-----------3----|-----------3----|
|-5-5-8---5-3----|-5-5-8---5-3----|-5-5-8---5-3----|-5-5-8---5-3----|
|-3-3-6-0-3-3--3-|-3-3-6-0-3-3--3-|-3-3-6-0-3-3--3-|-3-3-6-0-3-3--3-|


  E E E E E Q  E   E E E E E Q  E   E E E E E Q  E   E E E E E Q  E
|----------------|----------------|----------------|----------------|
|----------------|----------------|----------------|----------------|
|----------------|----------------|----------------|----------------|
|-----------3----|-----------3----|-----------3----|-----------3----|
|-5-5-8---5-3----|-5-5-8---5-3----|-5-5-8---5-3----|-5-5-8---5-3----|
|-3-3-6-0-3-3--3-|-3-3-6-0-3-3--3-|-3-3-6-0-3-3--3-|-3-3-6-0-3-3--3-|


  E E E E E Q  E   E E E E E Q  E   E E E E E Q  E   E E E E E Q  E
|----------------|----------------|----------------|----------------|
|----------------|----------------|----------------|----------------|
|----------------|----------------|----------------|----------------|
|-----------3----|-----------3----|-----------3----|-----------3----|
|-5-5-8---5-3----|-5-5-8---5-3----|-5-5-8---5-3----|-5-5-8---5-3----|
|-3-3-6-0-3-3--3-|-3-3-6-0-3-3--3-|-3-3-6-0-3-3--3-|-3-3-6-0-3-3--3-|


  E E E E E Q  E   E E E E E Q  E   E E E E E Q  E   E E E E E Q  E
|----------------|----------------|----------------|----------------|
|----------------|----------------|----------------|----------------|
|----------------|----------------|----------------|----------------|
|-----------3----|-----------3----|-----------3----|-----------3----|
|-5-5-8---5-3----|-5-5-8---5-3----|-5-5-8---5-3----|-5-5-8---5-3----|
|-3-3-6-0-3-3--3-|-3-3-6-0-3-3--3-|-3-3-6-0-3-3--3-|-3-3-6-0-3-3--3-|


  E E E E E Q  E   E E E E E Q  E   E E E E E Q  E   Q  Q  E Q  E
|----------------|----------------|----------------|---------3----|
|----------------|----------------|----------------|---------3----|
|----------------|----------------|----------------|---------3----|
|-----------3----|-----------3----|-----------3----|---------3----|
|-5-5-8---5-3----|-5-5-8---5-3----|-5-5-8---5-3----|-5--8--5----3-|
|-3-3-6-0-3-3--3-|-3-3-6-0-3-3--3-|-3-3-6-0-3-3--3-|-3--6--3----1-|


  E E Q  E Q  E   Q  Q  E Q  E   E E Q  E Q  E   Q  Q  E Q  E
|----------3----|---------3----|----------3----|---------3----|
|----------3----|---------3----|----------3----|---------3----|
|----------3----|---------3----|----------3----|---------3----|
|----------3----|---------3----|----------3----|---------3----|
|-5-5-8--5----3-|-5--8--5----3-|-5-5-8--5----3-|-5--8--5----3-|
|-3-3-6--3----1-|-3--6--3----1-|-3-3-6--3----1-|-3--6--3----1-|


  E E Q  E Q  E   Q  Q  E Q  E   E E Q  E Q  E   Q  Q  E Q  E
|----------3----|---------3----|----------3----|---------3----|
|----------3----|---------3----|----------3----|---------3----|
|----------3----|---------3----|----------3----|---------3----|
|----------3----|---------3----|----------3----|---------3----|
|-5-5-8--5----3-|-5--8--5----3-|-5-5-8--5----3-|-5--8--5----3-|
|-3-3-6--3----1-|-3--6--3----1-|-3-3-6--3----1-|-3--6--3----1-|


  E E Q  E Q  E   Q  Q  E Q  E   E E Q  E Q  E   Q  Q  E Q  E
|----------3----|---------3----|----------3----|---------3----|
|----------3----|---------3----|----------3----|---------3----|
|----------3----|---------3----|----------3----|---------3----|
|----------3----|---------3----|----------3----|---------3----|
|-5-5-8--5----3-|-5--8--5----3-|-5-5-8--5----3-|-5--8--5----3-|
|-3-3-6--3----1-|-3--6--3----1-|-3-3-6--3----1-|-3--6--3----1-|


  E E Q  E Q  E   Q  Q  E Q  E   E E Q  E Q  E   Q  Q  E Q  E
|----------3----|---------3----|----------3----|---------3----|
|----------3----|---------3----|----------3----|---------3----|
|----------3----|---------3----|----------3----|---------3----|
|----------3----|---------3----|----------3----|---------3----|
|-5-5-8--5----3-|-5--8--5----3-|-5-5-8--5----3-|-5--8--5----3-|
|-3-3-6--3----1-|-3--6--3----1-|-3-3-6--3----1-|-3--6--3----1-|


  E E Q  E Q  E   Q  Q  E Q  E   E E Q  E Q  E   Q  Q  E Q  E
|----------3----|---------3----|----------3----|---------3----|
|----------3----|---------3----|----------3----|---------3----|
|----------3----|---------3----|----------3----|---------3----|
|----------3----|---------3----|----------3----|---------3----|
|-5-5-8--5----3-|-5--8--5----3-|-5-5-8--5----3-|-5--8--5----3-|
|-3-3-6--3----1-|-3--6--3----1-|-3-3-6--3----1-|-3--6--3----1-|


                                                 Gtr II
  E E Q  E Q  E   Q  Q  E Q  E   E E Q  E Q  E   T E. T H.
|----------3----|---------3----|----------3----|--------------|
|----------3----|---------3----|----------3----|--------------|
|----------3----|---------3----|----------3----|--------------|
|----------3----|---------3----|----------3----|-3h5--3h5-----|
|-5-5-8--5----3-|-5--8--5----3-|-5-5-8--5----3-|--------------|
|-3-3-6--3----1-|-3--6--3----1-|-3-3-6--3----1-|--------------|


  +Q.   E E E Q    Q    +Q   +H       +W           T E. T H.
|----------------|------------------|------------|--------------|
|----------------|------------------|------------|--------------|
|----------------|------------------|------------|--------------|
|-(5)-------3----|------------------|------------|-3h5--3h5-----|
|-------3h5---5--|------------------|------------|--------------|
|----------------|-3b5r=(3)--(3)----|-(3)--------|--------------|


  +Q.   E E E Q    Q    +Q   +H
|----------------|------------------|
|----------------|------------------|
|----------------|------------------|
|-(5)-------3----|------------------|
|-------3h5---5--|------------------|
|----------------|-3b5r=(3)--(3)----|


  +H.      E E      +Q    Q      E     E E E
|-----------------|-----------------------------|
|------------3b5==|=(3)r--6b8----8s===15---3b5==|
|------------5b7==|=(5)r--8b10--10b12----5-5b7==|
|-----------------|-----------------------------|
|-----------------|-----------------------------|
|-(3)-------------|-----------------------------|


  +Q    Q      E     E E E      +Q    Q      Q      Q
|-----------------------------|----------------------------|
|-(3)r--6b8----8s===15---3b5==|=(3)r--6b8----8b10--10b12===|
|-(5)r--8b10--10b12----5-5b7==|=(5)r--8b10--10b12--12b14===|
|-----------------------------|----------------------------|
|-----------------------------|----------------------------|
|-----------------------------|----------------------------|


                                             ~~~~~~
          |---3----|
   +Q     E     E  E  Q      Q        Q      T     +T   E.  E  E  Q
|-----------------15---------------|-----------------------------18b20--|
|-(10)r--------15----18b20--18b20--|-18b20--18b20r(18)-18--18-----------|
|-(12)r--17b19---------------------|--------------------------15--------|
|----------------------------------|------------------------------------|
|----------------------------------|------------------------------------|
|----------------------------------|------------------------------------|


   ~~~~~
              |--3--|  |--3--|
   Q.      E  E  E  E  E  E  E
|-18b20---15-18p15----18p15----|
|------------------18-------18-|
|------------------------------|
|------------------------------|
|------------------------------|
|------------------------------|


                                 ~~                         ~~~
   |--3--|  |---3----|  |--3--|        |---3----|  |--3--|
   E  E  E  E     E  E  E  E  E  Q     E     E  E  E  E  E  Q   Q
|-------------------15--------------|----------15------------------|
|-18p15----------15----18p15--------|-------15----18p15------------|
|-------17-17b19-------------17-15--|-17b19-------------17-15\-----|
|-----------------------------------|---------------------------5--|
|-----------------------------------|------------------------------|
|-----------------------------------|------------------------------|


                     |-3-|         |-3-|
  Q      E E Q  Q    E E E  E E Q  E E E
|------------------|---------------------|
|-3b3.5------------|-----6\------------6-|
|-3b3.5---------3--|-7-7----5-5-3--7-7---|
|--------5p3-5-----|---------------------|
|------------------|---------------------|
|------------------|---------------------|


                                   ~
                     |--3--| |-3-|    |--3--|
  Q      E E Q  Q    E   E E E E E Q  E   E E
|------------------|-------3----------------3\--|
|-3b3.5------------|-----3---6p3----------3-----|
|-3b3.5---------3--|-5b7---------5-3--5b7-------|
|--------5p3-5-----|----------------------------|
|------------------|----------------------------|
|------------------|----------------------------|


                                                  ~
         |-3-|           |-3-|      |-3-|   |-3-|    |-3-|
  E E Q  E E E  E E   Q  E E E  E E E E E   E E E Q  E E E E E
|-------------------|---------------------|---------------------|
|------------6\-----|--------6\-----------|-6p3----------6------|
|-5-5-5--7-7----5-5-|-3--7-7----5-3-5p3---|-----5-3--7-7---5-5--|
|-------------------|-------------------5-|---------------------|
|-------------------|---------------------|---------------------|
|-------------------|---------------------|---------------------|


  ~
     |-3-|     |-3-|
  Q  E E E E E E E E   T E. T H.        +Q.   E E E Q    Q    +Q   +H
|--------------------|----------------|----------------|------------------|
|--------6-----------|----------------|----------------|------------------|
|-3--7-7---5-3-5p3---|----------------|----------------|------------------|
|------------------5-|-3h5--3h5-------|-(5)-------3----|------------------|
|--------------------|----------------|-------3h5---5--|------------------|
|--------------------|----------------|----------------|-3b5r=(3)--(3)----|


  +W           T E. T H.        +Q.   E E E Q    Q    +Q   +H
|------------|----------------|----------------|------------------|
|------------|----------------|----------------|------------------|
|------------|----------------|----------------|------------------|
|------------|-3h5--3h5-------|-(5)-------3----|------------------|
|------------|----------------|-------3h5---5--|------------------|
|-(3)--------|----------------|----------------|-3b5r=(3)--(3)----|


               |-3-| |-3-| |-3-| |-3-|   |-3-| |-3-| |-3-| |-3-|
  +W           E E E E E E E E E E E E   E E E E E E E E E E E E
|------------|-------------------------|--------------------------|
|------------|-------------------------|--------------------------|
|------------|-------------------------|--------------------------|
|------------|-------------------------|--------------------------|
|------------|-------------------------|--------------------------|
|-(3)--------|-3-3-3-3-3-3-3-3-3-3-3-3-|-3-3-3-3-3-3-3-3-3-3-3-3--|


                                                      Gtr I
                                                                            ~
  |-3-| |-3-| |-3-| |-3-|   |-3-| |-3-| |-3-| |-3-|
  E E E E E E E E E E E E   E E E E E E E E E E E E   E E S S S S S E T E T E
|-------------------------|-------------------------|--------------------------|
|-------------------------|-------------------------|---1-1p0---0--------------|
|-------------------------|-------------------------|-2-------2---2p0-0h2-0h2--|
|-------------------------|-------------------------|--------------------------|
|-------------------------|-------------------------|--------------------------|
|-3-3-3-3-3-3-3-3-3-3-3-3-|-3-3-3-3-3-3-3-3-3-3-3-3-|--------------------------|


   ~~~
  +E  E S S S S S E T E T E   S S E S S S S S E T E T E
|---------------------------|---------------------------|
|-----1-1p0---0-------------|-------1p0---0-------------|
|-(2)-------2---2p0-0s2-0h2-|-----0-----2---2p0-0h2-0h2-|
|---------------------------|-0h2-----------------------|
|---------------------------|---------------------------|
|---------------------------|---------------------------|


  S S S S S S S S S S E E E    E E  S  S E E E S E S
|----------------------------|---7-10s15s7-7-5-5s7-7-|
|-1p0---1p0---1p0---1p0-0----|-----------------------|
|-----2-----2-----2-------2/-|-4-4--7s12s4-4-2-2s4---|
|----------------------------|-----------------------|
|----------------------------|-----------------------|
|----------------------------|-----------------------|


  S S  S S S  S S S S S S S E E
|-----10-----12-----7-----5-5s7-|
|-------------------------------|
|-4s7----7s9----9s4---4s2---2s4-|
|-------------------------------|
|-------------------------------|
|-------------------------------|


  E  E  S  S E E E S E S   E.  S  +E   E  +S   S  E  S  S E
|-7-10-10s15s7-7-5-5s7---|-7--10-(10)-12-(12)-12s15-12s10---|
|------------------------|----------------------------------|
|-4--7--7s12s4-4-2-2s4---|-4---7--(7)--9--(9)--9s12--9s=7---|
|------------------------|----------------------------------|
|------------------------|----------------------------------|
|------------------------|--------------------------------0-|


  Gtr II
  E. S +Q   H      E. S +Q   H
|----------------|----------------|
|----------------|----------------|
|-9--7-(7)-------|----------------|
|-9--7-(7)-------|-9--7-(7)-------|
|-7--5-(5)-------|-9--7-(7)-------|
|----------------|-7--5-(5)-------|


                                    Gtr III
  E. S +Q   H      E. S +Q   H      Q  Q  E Q  E   E E Q  E Q  E
|----------------|----------------|---------3----|----------3----|
|----------------|----------------|---------3----|----------3----|
|-9--7-(7)-------|----------------|---------3----|----------3----|
|-9--7-(7)-------|-9--7-(7)-------|---------3----|----------3----|
|-7--5-(5)-------|-9--7-(7)-------|-5--8--5----3-|-5-5-8--5----3-|
|----------------|-7--5-(5)-------|-3--6--3----1-|-3-3-6--3----1-|


  Q  Q  E Q  E   E E Q  E Q  E   E E E E E Q  E   E E E E E Q  E
|---------3----|----------3----|----------------|----------------|
|---------3----|----------3----|----------------|----------------|
|---------3----|----------3----|----------------|----------------|
|---------3----|----------3----|-----------3----|-----------3----|
|-5--8--5----3-|-5-5-8--5----3-|-5-5-8---5-3----|-5-5-8---5-3----|
|-3--6--3----1-|-3-3-6--3----1-|-3-3-6-0-3-3--3-|-3-3-6-0-3-3--3-|


  E E E E E Q  E   E E E E E Q  E   E E E E E Q  E   E E E E E Q  E
|----------------|----------------|----------------|----------------|
|----------------|----------------|----------------|----------------|
|----------------|----------------|----------------|----------------|
|-----------3----|-----------3----|-----------3----|-----------3----|
|-5-5-8---5-3----|-5-5-8---5-3----|-5-5-8---5-3----|-5-5-8---5-3----|
|-3-3-6-0-3-3--3-|-3-3-6-0-3-3--3-|-3-3-6-0-3-3--3-|-3-3-6-0-3-3--3-|


  E E E E E Q  E   E E E E E Q  E   E E E E E Q  E   E E E E E Q  E
|----------------|----------------|----------------|----------------|
|----------------|----------------|----------------|----------------|
|----------------|----------------|----------------|----------------|
|-----------3----|-----------3----|-----------3----|-----------3----|
|-5-5-8---5-3----|-5-5-8---5-3----|-5-5-8---5-3----|-5-5-8---5-3----|
|-3-3-6-0-3-3--3-|-3-3-6-0-3-3--3-|-3-3-6-0-3-3--3-|-3-3-6-0-3-3--3-|


  E E E E E Q  E   E E E E E Q  E   E E E E E Q  E   E E E E E Q  E
|----------------|----------------|----------------|----------------|
|----------------|----------------|----------------|----------------|
|----------------|----------------|----------------|----------------|
|-----------3----|-----------3----|-----------3----|-----------3----|
|-5-5-8---5-3----|-5-5-8---5-3----|-5-5-8---5-3----|-5-5-8---5-3----|
|-3-3-6-0-3-3--3-|-3-3-6-0-3-3--3-|-3-3-6-0-3-3--3-|-3-3-6-0-3-3--3-|


  E E E E E Q  E   E E E E E Q  E   E E E E E Q  E   E E E E E Q  E
|----------------|----------------|----------------|----------------|
|----------------|----------------|----------------|----------------|
|----------------|----------------|----------------|----------------|
|-----------3----|-----------3----|-----------3----|-----------3----|
|-5-5-8---5-3----|-5-5-8---5-3----|-5-5-8---5-3----|-5-5-8---5-3----|
|-3-3-6-0-3-3--3-|-3-3-6-0-3-3--3-|-3-3-6-0-3-3--3-|-3-3-6-0-3-3--3-|


  E E E E E Q  E   E E E E E Q  E   Q  Q  E Q  E   E E Q  E Q  E
|----------------|----------------|---------3----|----------3----|
|----------------|----------------|---------3----|----------3----|
|----------------|----------------|---------3----|----------3----|
|-----------3----|-----------3----|---------3----|----------3----|
|-5-5-8---5-3----|-5-5-8---5-3----|-5--8--5----3-|-5-5-8--5----3-|
|-3-3-6-0-3-3--3-|-3-3-6-0-3-3--3-|-3--6--3----1-|-3-3-6--3----1-|


  Q  Q  E Q  E   E E Q  E Q  E   Q  Q  E Q  E   E E Q  E Q  E
|---------3----|----------3----|---------3----|----------3----|
|---------3----|----------3----|---------3----|----------3----|
|---------3----|----------3----|---------3----|----------3----|
|---------3----|----------3----|---------3----|----------3----|
|-5--8--5----3-|-5-5-8--5----3-|-5--8--5----3-|-5-5-8--5----3-|
|-3--6--3----1-|-3-3-6--3----1-|-3--6--3----1-|-3-3-6--3----1-|


  Q  Q  E Q  E   E E Q  E Q  E   Q  Q  E Q  E   E E Q  E Q  E
|---------3----|----------3----|---------3----|----------3----|
|---------3----|----------3----|---------3----|----------3----|
|---------3----|----------3----|---------3----|----------3----|
|---------3----|----------3----|---------3----|----------3----|
|-5--8--5----3-|-5-5-8--5----3-|-5--8--5----3-|-5-5-8--5----3-|
|-3--6--3----1-|-3-3-6--3----1-|-3--6--3----1-|-3-3-6--3----1-|


  Q  Q  E Q  E   E E Q  E Q  E   Q  Q  E Q  E   E E Q  E Q  E
|---------3----|----------3----|---------3----|----------3----|
|---------3----|----------3----|---------3----|----------3----|
|---------3----|----------3----|---------3----|----------3----|
|---------3----|----------3----|---------3----|----------3----|
|-5--8--5----3-|-5-5-8--5----3-|-5--8--5----3-|-5-5-8--5----3-|
|-3--6--3----1-|-3-3-6--3----1-|-3--6--3----1-|-3-3-6--3----1-|


  Q  Q  E Q  E   E E Q  E Q  E   Q  Q  E Q  E   E E Q  E Q  E
|---------3----|----------3----|---------3----|----------3----|
|---------3----|----------3----|---------3----|----------3----|
|---------3----|----------3----|---------3----|----------3----|
|---------3----|----------3----|---------3----|----------3----|
|-5--8--5----3-|-5-5-8--5----3-|-5--8--5----3-|-5-5-8--5----3-|
|-3--6--3----1-|-3-3-6--3----1-|-3--6--3----1-|-3-3-6--3----1-|


                                 Gtr II
                                      ~~~~~~~~~~~~~~
  Q  Q  E Q  E   E E Q  E Q  E   S E. H.        +Q.   E E E Q
|---------3----|----------3----|--------------|----------------|
|---------3----|----------3----|--------------|----------------|
|---------3----|----------3----|-3------------|----------------|
|---------3----|----------3----|---5--5-------|-(5)------------|
|-5--8--5----3-|-5-5-8--5----3-|--------------|-------3h5-3h5--|
|-3--6--3----1-|-3-3-6--3----1-|--------------|----------------|


                                         ~~~~~~~~~~~~~~
  Q    +Q   +H       +W           T E. T H.        +Q.   E E E Q
|------------------|------------|----------------|-----------------|
|------------------|------------|----------------|-----------------|
|------------------|------------|----------------|-----------------|
|------------------|------------|-3h5--3h5-------|-(5)-------------|
|------------------|------------|----------------|-------3h5-3h5---|
|-3b5r=(3)--(3)----|-(3)--------|----------------|-----------------|


                                  |-3-| |-3-| |-3-| |-3-|
  Q    +Q   +H       +W           E E E E E E E E E E E E
|------------------|------------|-5-6---5-----5-6---5-----|
|------------------|------------|-----8---6-8-----8---6-8-|
|------------------|------------|-------------------------|
|------------------|------------|-------------------------|
|------------------|------------|-------------------------|
|-3b5r=(3)--(3)----|-(3)--------|-------------------------|


  |-3-| |-3-| |-3-| |-3-|   |-3-| |-3-| |-3-| |-3-|   |-3-| |-3-| |-3-| |-3-|
  E E E E E E E E E E E E   E E E E E E E E E E E E   E E E E E E E E E E E E
|-5-6---5-----5-6---5-----|-5-6---5-----5-6---5-----|-5-6---5-----5-6---5------|
|-----8---6-8-----8---6-8-|-----8---6-8-----8---6-8-|-----8---6-8-----8---6-8--|
|-------------------------|-------------------------|--------------------------|
|-------------------------|-------------------------|--------------------------|
|-------------------------|-------------------------|--------------------------|
|-------------------------|-------------------------|--------------------------|


  |-3-| |-3-| |-3-| |-3-|   |-3-| |-3-| |-3-| |-3-|   |-3-| |-3-| |-3-| |-3-|
  E E E E E E E E E E E E   E E E E E E E E E E E E   E E E E E E E E E E E E
|-5-6---5-----5-6---5-----|-5-6---5-----5-6---5-----|-5-6---5-----5-6---5------|
|-----8---6-8-----8---6-8-|-----8---6-8-----8---6-8-|-----8---6-8-----8---6-8--|
|-------------------------|-------------------------|--------------------------|
|-------------------------|-------------------------|--------------------------|
|-------------------------|-------------------------|--------------------------|
|-------------------------|-------------------------|--------------------------|


  |-3-| |-3-| |-3-| |-3-|
  E E E E E E E E E E E E
|-5-6---5-----5-6---5--------*|
|-----8---6-8-----8---6-8----*|
|----------------------------*|
|----------------------------*|
|----------------------------*|
|----------------------------*|


Duration Legend
---------------
W - whole; H - half; Q - quarter; E - 8th; S - 16th; T - 32nd; X - 64th; a - acciaccatura
+ - note tied to previous; . - note dotted; .. - note double dotted
Uncapitalized letters represent notes that are staccato (1/2 duration)
Irregular groupings are notated above the duration line
Duration letters will always appear directly above the note/fret number it represents the
duration for.  Duration letters with no fret number below them represent rests.  Multi-
bar rests are notated in the form Wxn, where n is the number of bars to rest for.  Low
melody durations appear below the staff

Tablature Legend
----------------
 h   - hammer-on
 p   - pull-off
 b   - bend
 pb  - pre-bend
 r   - bend release (if no number after the r, then release immediately)
 /\  - slide into or out of (from/to "nowhere")
 s   - legato slide
 S   - shift slide
  - natural harmonic
[n]  - artificial harmonic
n(n) - tapped harmonic
 ~   - vibrato
 tr  - trill
 T   - tap
 TP  - trem. picking
 PM  - palm muting
\n/  - tremolo bar dip; n = amount to dip
 \n  - tremolo bar down
 n/  - tremolo bar up
/n\  - tremolo bar inverted dip
 =   - hold bend; also acts as connecting device for hammers/pulls
 <>  - volume swell (louder/softer)
 x   - on rhythm slash represents muted slash
 o   - on rhythm slash represents single note slash
Acordes para:
    Colaboração e revisão:
    • André Rangel

    0 comentários

      mostrar mais comentários

      Conseguiu tocar?

      1tocaram0ainda não

      Grave um vídeo tocando Fairies Wear Boots e mande pra gente!

      00:00 / 00:00
      outros vídeos desta música
      repetirqualidadeautomática
      Outro vídeos desta música
        00:00 / 00:00
        automática
        OK