Cifra Club

Aprenda

Welcome to dying

Blind Guardian

Cifra: Versão 2 (violão e guitarra)
tom: Db
Blind Guardian - Welcome to Dying

afinado meio tom abaixo:

1 - Eb  4 - Db
2 - Bb  5 - Ab
3 - Gb  6 - Eb


Guitarra Base:

||----------|----|----------|----|----------|----|----|----|----------------------------------------------|--------
||----------|----|----------|----|----------|----|----|----|----------------------------------------------|--------
||----------|----|----------|----|----------|----|----|----|----------------------------------------------|--------
||-10--8--6-|----|-10--8--6-|----|-10--8--6-|----|--3-|--5-|----------------------------------------------|--------
||-10--8--6-|----|-10--8--6-|----|-10--8--6-|----|--3-|--5-|-10-------------------------------------------|--------
||--8--6--4-|----|--8--6--4-|----|--8--6--4-|----|--1-|--3-|--8--8--8--8--8--8--8--8--8--8--8--8--8--8--8-|--8--8--
                                                                 *  *  *  *  *  *  *  *  *  *  *  *  *  *    *  *  

-------------------------------------|----------------------------------------------|------------------------------
-------------------------------------|----------------------------------------------|------------------------------
-------------------------------------|----------------------------------------------|------------------------------
-------------------------------------|----------------------------------------------|------------------------------
-------------------------------10--8-|-10-------------------------------------------|------------------------------
--8--8--8--8--8--8--8--8--8--8--8--6-|--8--8--8--8--8--8--8--8--8--8--8--8--8--8--8-|--8--8--8--8--8--8--8--8--8--8
  *  *  *  *  *  *  *  *  *  *             *  *  *  *  *  *  *  *  *  *  *  *  *  *    *  *  *  *  *  *  *  *  *  *

-------------|----|----|-------|----||----------------------------------------------3x----------------------------|
-------------|----|----|-------|----||----------------------------------------------||----------------------------|
-------------|----|----|-------|----||----------------------------------------------||----------------------------|
-------------|--6-|--6-|--3--3-|--5-||----------------------------------------------||----------------------------|
-------10--8-|--6-|--6-|--3--3-|--5-||--6-------------------------------------------||--6--------------------8--8-|
--8--8--8--6-|--4-|--4-|--1--1-|--3-||--4--4--4--4--4--4--4--4--4--4--4--4--4--4--4-||--4--4--4--4--4--4--4--6--6-|
  *  *                                     *  *  *  *  *  *  *  *  *  *  *  *  *  *        *  *  *  *  *  *        

----------------------------------------------|----------------------------------------------|---------------------
----------------------------------------------|----------------------------------------------|---------------------
----------------------------------------------|----------------------------------------------|---------------------
----------------------------------------------|----------------------------------------------|--8------------------
-10-------------------------------------------|--6-------------------------------------------|--6--6--6--6--6--6--6
--8--8--8--8--8--8--8--8--8--8--8--8--8--8--8-|--4--4--4--4--4--4--4--4--4--4--4--4--4--4--4-|---------------------
     *  *  *  *  *  *  *  *  *  *  *  *  *  *       *  *  *  *  *  *  *  *  *  *  *  *  *  *       *  *  *  *  *  *

-------------------------|----------------------------------------------|------------------------------------------
-------------------------|----------------------------------------------|------------------------------------------
-------------------------|----------------------------------------------|------------------------------------------
-------------------------|----------------------------------------------|------------------------------------------
--6--6--6--6--6--6--6--6-|--8-------------------------------------------|--6---------------------------------------
-------------------------|--6--6--6--6--6--6--6--6--6--6--6--6--6--6--6-|--4--4--4--4--4--4--4--4--4--4--4--4--4--4
  *  *  *  *  *  *  *  *       *  *  *  *  *  *  *  *  *  *  *  *  *  *       *  *  *  *  *  *  *  *  *  *  *  *  *

----|-------------------------------------------------|----|----|----------------------------------------------|---
----|-------------------------------------------------|----|----|----------------------------------------------|---
----|-------------------------------------------------|----|----|----------------------------------------------|---
----|-------------------------------------------------|--5-|----|----------------------------------------------|---
----|-------------------------------------------------|--5-|----|-10-------------------------------------------|--6
--4-|--4--4--4--4--4--4--4--4--4--4--4--4--4--4--4--4-|--3-|----|--8--8--8--8--8--8--8--8--8--8--8--8--8--8--8-|--4
  *    *  *  *  *  *  *  *  *  *  *  *  *  *  *  *  *                 *  *  *  *  *  *  *  *  *  *  *  *  *  *     

-------------------------------------------|----------------------------------------------|------------------------
-------------------------------------------|----------------------------------------------|------------------------
-------------------------------------------|----------------------------------------------|------------------------
-------------------------------------------|--8-------------------------------------------|------------------------
-------------------------------------------|--6--6--6--6--6--6--6--6--6--6--6--6--6--6--6-|--8---------------------
--4--4--4--4--4--4--4--4--4--4--4--4--4--4-|----------------------------------------------|--6--6--6--6--6--6--6--6
  *  *  *  *  *  *  *  *  *  *  *  *  *  *       *  *  *  *  *  *  *  *  *  *  *  *  *  *       *  *  *  *  *  *  *

-------------------------|----------------------------------------------|------------------------------------------
-------------------------|----------------------------------------------|------------------------------------------
-------------------------|----------------------------------------------|------------------------------------------
-------------------------|----------------------------------------------|------------------------------------------
-------------------------|--6-------------------------------------------|------------------------------------------
--6--6--6--6--6--6--6--6-|--4--4--4--4--4--4--4--4--4--4--4--4--4--4--4-|--4--4--4--4--4--4--4--4--4--4--4--4--4--4
  *  *  *  *  *  *  *  *       *  *  *  *  *  *  *  *  *  *  *  *  *  *    *  *  *  *  *  *  *  *  *  *  *  *  *  *

-------|----------|----|----||----|----|----|----4x-------------------------|-------------------------||-------|---
-------|--8-------|----|----||----|----|----|----||-------------------------|-------------------------||-------|---
-------|----10--8-|--7-|----||--5-|----|--8-|----||-------------------------|-------------------------||--5--6-|---
-------|----------|----|----||--5-|--3-|--8-|--8-||-------------------------|-------------------------||--5--6-|---
-------|----------|----|----||--3-|--3-|--6-|--8-||--6--6--6--6--6--6--6--6-|--6--6--6--6--6--6--6--6-||--3--4-|---
--4--4-|----------|----|----||----|--1-|----|--6-||--4--4--4--4--4--4--4--4-|--4--4--4--4--4--4--4--4-||-------|---
  *  *                                                  *  *  *  *  *  *  *    *  *  *  *  *  *  *  *              

4x----------------------------------------------|-------------------------------------------------|-------|----|---
||----------------------------------------------|-------------------------------------------------|-------|----|---
||----------------------------------------------|-------------------------------------------------|-------|----|---
||----------------------------------------------|-------------------------------------------------|--3--6-|----|---
||--5-------------------------------------------|-------------------------------------------------|--3--6-|----|--5
||--3--3--3--3--3--3--3--3--3--3--3--3--3--3--3-|--3--3--3--3--3--3--3--3--3--3--3--3--3--3--3--3-|--1--4-|----|--3
       *  *  *  *  *  *  *  *  *  *  *  *  *  *    *  *  *  *  *  *  *  *  *  *  *  *  *  *  *  *                  
-------------------------------------------|-------------------------------------------------||-------|----4x------
-------------------------------------------|-------------------------------------------------||-------|----||------
-------------------------------------------|-------------------------------------------------||--5--6-|----||------
-------------------------------------------|-------------------------------------------------||--5--6-|----||------
-------------------------------------------|-------------------------------------------------||--3--4-|----||--5---
--3--3--3--3--3--3--3--3--3--3--3--3--3--3-|--3--3--3--3--3--3--3--3--3--3--3--3--3--3--3--3-||-------|----||--3--3
  *  *  *  *  *  *  *  *  *  *  *  *  *  *    *  *  *  *  *  *  *  *  *  *  *  *  *  *  *  *                      *

----------------------------------------|----|----------------------------------------------|-------2x-------------
----------------------------------------|----|----------------------------------------------|-------||-------------
----------------------------------------|----|----------------------------------------------|-------||-----------5-
----------------------------------------|----|----------------------------------------------|-------||-------------
----------------------------------------|--5-|--6-------------------------------------------|--6--3-||--3--3--3----
--3--3--3--3--3--3--3--3--3--3--3--3--3-|--3-|--4--4--4--4--4--4--4--4--4--4--4--4--4--4--4-|--4--1-||-------------
  *  *  *  *  *  *  *  *  *  *  *  *  *            *  *  *  *  *  *  *  *  *  *  *  *  *  *             *  *  *    

----------------------|------------|----|----||----|----|----|----4x----------------------------------------------|
-----------5----------|------------|----|----||----|----|----|----||----------------------------------------------|
----------------------|--6--3-3h-5-|----|----||--5-|----|--8-|----||----------------------------------------------|
----------------------|------------|--5-|----||--5-|--3-|--8-|--8-||----------------------------------------------|
--3--3--3-----3--3--3-|------------|--5-|----||--3-|--3-|--6-|--8-||--5-------------------------------------------|
----------------------|------------|--3-|----||----|--1-|----|--6-||--3--3--3--3--3--3--3--3--3--3--3--3--3--3--3-|
  *  *  *     *  *  *                                                    *  *  *  *  *  *  *  *  *  *  *  *  *  *  

----------------------------------------------|-------|----|----------------------------------------------|--------
----------------------------------------------|-------|----|----------------------------------------------|--------
----------------------------------------------|-------|----|----------------------------------------------|--------
----------------------------------------------|-------|----|----------------------------------------------|--------
--6-------------------------------------------|--7--7-|--7-|--5-------------------------------------------|--8-----
--4--4--4--4--4--4--4--4--4--4--4--4--4--4--4-|--5--5-|--5-|--3--3--3--3--3--3--3--3--3--3--3--3--3--3--3-|--6--6--
     *  *  *  *  *  *  *  *  *  *  *  *  *  *                    *  *  *  *  *  *  *  *  *  *  *  *  *  *       *  

----------------------------------------|----------------------------------------------|---------------------------
----------------------------------------|----------------------------------------------|---------------------------
----------------------------------------|----------------------------------------------|---------------------------
----------------------------------------|----------------------------------------------|-10------------------------
----------------------------------------|--7-------------------------------------------|--8--8--8--8--8--8--8--8--8
--6--6--6--6--6--6--6--6--6--6--6--6--6-|--5--5--5--5--5--5--5--5--5--5--5--5--5--5--5-|---------------------------
  *  *  *  *  *  *  *  *  *  *  *  *  *       *  *  *  *  *  *  *  *  *  *  *  *  *  *       *  *  *  *  *  *  *  *

-------------------|----------------------------------------------|----------------------------------------------|-
-------------------|----------------------------------------------|----------------------------------------------|-
-------------------|----------------------------------------------|----------------------------------------------|-
-------------------|----------------------------------------------|----------------------------------------------|-
--8--8--8--8--8--8-|-10-------------------------------------------|--8-------------------------------------------|-
-------------------|--8--8--8--8--8--8--8--8--8--8--8--8--8--8--8-|--6--6--6--6--6--6--6--6--6--6--6--6--6--6--6-|-
  *  *  *  *  *  *       *  *  *  *  *  *  *  *  *  *  *  *  *  *       *  *  *  *  *  *  *  *  *  *  *  *  *  *   

-------|-------|----------------------------------------------|-------------------------------------------|-------|
-------|-------|----------------------------------------------|-------------------------------------------|-------|
--7----|-10----|----------------------------------------------|-------------------------------------------|--7----|
--7--8-|-10-10-|----------------------------------------------|-10----------------------------------------|--7--8-|
--5--8-|--8-10-|--8-------------------------------------------|--8--8--8--8--8--8--8--7-------------------|--5--8-|
-----6-|-----8-|--6--6--6--6--6--6--6--6--6--6--6--6--6--6--6-|-----------------------5--5--5--5--5--5--5-|-----6-|
                     *  *  *  *  *  *  *  *  *  *  *  *  *  *       *  *  *  *  *  *     *  *  *  *  *  *          

-------|----------------------------------------------|-------------------------------------------|----|----|----|-
-------|----------------------------------------------|-------------------------------------------|----|----|----|-
-10----|----------------------------------------------|-------------------------------------------|----|----|----|-
-10-10-|----------------------------------------------|-10----------------------------------------|--7-|----|----|-
--8-10-|--8-------------------------------------------|--8--8--8--8--8--8--8--7-------------------|--7-|----|----|-
-----8-|--6--6--6--6--6--6--6--6--6--6--6--6--6--6--6-|-----------------------5--5--5--5--5--5--5-|--5-|----|----|-
             *  *  *  *  *  *  *  *  *  *  *  *  *  *       *  *  *  *  *  *     *  *  *  *  *  *                  

----|-------------------------|-------------------------|-------------------------|-------------------------||-----
----|-------------------------|-------------------------|-------------------------|-------------------------||-----
----|-------------------------|-------------------------|-------------------------|-------------------------||-----
----|-------------------------|-------------------------|--7--7--7--7--7--7--7--7-|-10-10-10-10-10-10-10-10-||-----
----|--7--7--7--7--7--7--7--7-|-10-10-10-10-10-10-10-10-|--5--5--5--5--5--5--5--5-|--8--8--8--8--8--8--8--8-||--7--
----|--5--5--5--5--5--5--5--5-|--8--8--8--8--8--8--8--8-|-------------------------|-------------------------||--5--
       *  *  *  *  *  *  *  *    *  *  *  *  *  *  *  *    *  *  *  *  *  *  *  *    *  *  *  *  *  *  *  *        

-----------------------------------------|----------------------------------------------|--------------------------
-----------------------------------------|----------------------------------------------|--------------------------
-----------------------------------------|----------------------------------------------|--------------------------
-----------------------------------------|----------------------------------------------|--7-----------------------
-----------------------------------------|-10-------------------------------------------|--5--5--5--5--5--5--5--5--
5--5--5--5--5--5--5--5--5--5--5--5--5--5-|--8--8--8--8--8--8--8--8--8--8--8--8--8--8--8-|--------------------------
*  *  *  *  *  *  *  *  *  *  *  *  *  *       *  *  *  *  *  *  *  *  *  *  *  *  *  *       *  *  *  *  *  *  *  

--------------------|----------------------------------------------2x----------------------------------------------
--------------------|----------------------------------------------||----------------------------------------------
--------------------|----------------------------------------------||----------------------------------------------
--------------------|-10-------------------------------------------||----------------------------------------------
5--5--5--5--5--5--5-|--8--8--8--8--8--8--8--8--8--8--8--8--8--8--8-||-10-------------------------------------------
--------------------|----------------------------------------------||--8--8--8--8--8--8--8--8--8--8--8--8--8--8--8-
*  *  *  *  *  *  *       *  *  *  *  *  *  *  *  *  *  *  *  *  *        *  *  *  *  *  *  *  *  *  *  *  *  *  *  

|----------------------------------------------|----------------------------------------------|--------------------
|----------------------------------------------|----------------------------------------------|--------------------
|----------------------------------------------|----------------------------------------------|--------------------
|----------------------------------------------|--8-------------------------------------------|--------------------
|--6-------------------------------------------|--6--6--6--6--6--6--6--6--6--6--6--6--6--6--6-|--8-----------------
|--4--4--4--4--4--4--4--4--4--4--4--4--4--4--4-|----------------------------------------------|--6--6--6--6--6--6--
      *  *  *  *  *  *  *  *  *  *  *  *  *  *       *  *  *  *  *  *  *  *  *  *  *  *  *  *       *  *  *  *  *  

----------------------------|----------------------------------------------|---------------------------------------
----------------------------|----------------------------------------------|---------------------------------------
----------------------------|----------------------------------------------|---------------------------------------
----------------------------|----------------------------------------------|---------------------------------------
----------------------------|--6-------------------------------------------|---------------------------------------
--6--6--6--6--6--6--6--6--6-|--4--4--4--4--4--4--4--4--4--4--4--4--4--4--4-|--4--4--4--4--4--4--4--4--4--4--4--4--4
  *  *  *  *  *  *  *  *  *       *  *  *  *  *  *  *  *  *  *  *  *  *  *    *  *  *  *  *  *  *  *  *  *  *  *  *

----------=----|----2x----------|----|----||----|----|----|----4x----------------------------------------------|---
----------=----|----||--8-------|----|----||----|----|----|----||----------------------------------------------|---
----------=----|----||----10--8-|--7-|----||--5-|----|--8-|----||----------------------------------------------|---
----------=--5-|----||----------|----|----||--5-|--3-|--8-|--8-||----------------------------------------------|---
----------=--5-|----||----------|----|----||--3-|--3-|--6-|--8-||-10-------------------------------------------|--8
--4--4--4-=--3-|----||----------|----|----||----|--1-|----|--6-||--8--8--8--8--8--8--8--8--8--8--8--8--8--8--8-|--6
  *  *  *                                                             *  *  *  *  *  *  *  *  *  *  *  *  *  *     

-------------------------------------------|----------------------------------------------|------------------------
-------------------------------------------|----------------------------------------------|------------------------
-------------------------------------------|----------------------------------------------|------------------------
-------------------------------------------|-10-------------------------------------------|------------------------
-------------------------------------------|--8--8--8--8--8--8--8--8--8--8--8--8--8--8--8-|--8--8--8--8--8--8--8--8
--6--6--6--6--6--6--6--6--6--6--6--6--6--6-|----------------------------------------------|------------------------
  *  *  *  *  *  *  *  *  *  *  *  *  *  *       *  *  *  *  *  *  *  *  *  *  *  *  *  *    *  *  *  *  *  *  *  *

-------------------------4x----------------------------------------------|-----------------------------------------
-------------------------||----------------------------------------------|-----------------------------------------
-------------------------||----------------------------------------------|-----------------------------------------
-------------------------||----------------------------------------------|-----------------------------------------
--8--8--8--8--8--8--8--8-||--7-------------------------------------------|-10--------------------------------------
-------------------------||--5--5--5--5--5--5--5--5--5--5--5--5--5--5--5-|--8--8--8--8--8--8--8--8--8--8--8--8--8--
  *  *  *  *  *  *  *  *        *  *  *  *  *  *  *  *  *  *  *  *  *  *       *  *  *  *  *  *  *  *  *  *  *  *  

-------|----------------------------------------------|----------------------------------------------4x----------|-
-------|----------------------------------------------|----------------------------------------------||----------|-
-------|----------------------------------------------|----------------------------------------------||----------|-
-------|--7-------------------------------------------|-10-------------------------------------------||--7--5--3-|-
-------|--5--5--5--5--5--5--5--5--5--5--5--5--5--5--5-|--8--8--8--8--8--8--8--8--8--8--8--8--8--8--8-||--7--5--3-|-
--8--8-|----------------------------------------------|----------------------------------------------||--5--3--1-|-
  *  *       *  *  *  *  *  *  *  *  *  *  *  *  *  *       *  *  *  *  *  *  *  *  *  *  *  *  *  *               

----|----------|----|----------|----|----------||
----|----------|----|----------|----|----------||
----|----------|----|----------|----|----------||
----|--7--5--3-|----|--7--5--3-|----|--7--5--7-||
----|--7--5--3-|----|--7--5--3-|----|--7--5--7-||
----|--5--3--1-|----|--5--3--1-|----|--5--3--5-||

Guitarra Solo

afinado meio tom abaixo:

1 - Eb  4 - Db
2 - Bb  5 - Ab
3 - Gb  6 - Eb

||----------|----|----------|----|----------|----|----|----|----------------------------------------------|--------
||----------|----|----------|----|----------|----|----|----|----------------------------------------------|--------
||----------|----|----------|----|----------|----|----|----|----------------------------------------------|--------
||-10--8--6-|----|-10--8--6-|----|-10--8--6-|----|--3-|--5-|----------------------------------------------|--------
||-10--8--6-|----|-10--8--6-|----|-10--8--6-|----|--3-|--5-|-10-------------------------------------------|--------
||--8--6--4-|----|--8--6--4-|----|--8--6--4-|----|--1-|--3-|--8--8--8--8--8--8--8--8--8--8--8--8--8--8--8-|--8--8--
                                                                 *  *  *  *  *  *  *  *  *  *  *  *  *  *    *  *  

-------------------------------------|----------------------------------------------|------------------------------
-------------------------------------|----------------------------------------------|------------------------------
-------------------------------------|----------------------------------------------|------------------------------
-------------------------------------|----------------------------------------------|------------------------------
-------------------------------10--8-|-10-------------------------------------------|------------------------------
--8--8--8--8--8--8--8--8--8--8--8--6-|--8--8--8--8--8--8--8--8--8--8--8--8--8--8--8-|--8--8--8--8--8--8--8--8--8--8
  *  *  *  *  *  *  *  *  *  *             *  *  *  *  *  *  *  *  *  *  *  *  *  *    *  *  *  *  *  *  *  *  *  *

-------------|----|----|-------|----||----------------------|----------13-------|-------------------|----------13--
-------------|----|----|-------|----||----16-15-13-15-16----|-16-15-13----13----|-16-15-13-15-16----|-16-15-13-----
-------------|----|----|-------|----||-13----------------13-|----------------13-|----------------13-|--------------
-------------|--6-|--6-|--3--3-|--5-||----------------------|-------------------|-------------------|--------------
-------10--8-|--6-|--6-|--3--3-|--5-||----------------------|-------------------|-------------------|--------------
--8--8--8--6-|--4-|--4-|--1--1-|--3-||----------------------|-------------------|-------------------|--------------
  *  *                                                                                                             

----||----------------------------------------------|----------------------------------------------|---------------
-13-||----------------------------------------------|----------------------------------------------|---------------
----||----------------------------------------------|----------------------------------------------|---------------
----||----------------------------------------------|----------------------------------------------|--8------------
----||-10-------------------------------------------|--6-------------------------------------------|--6--6--6--6--6
----||--8--8--8--8--8--8--8--8--8--8--8--8--8--8--8-|--4--4--4--4--4--4--4--4--4--4--4--4--4--4--4-|---------------
           *  *  *  *  *  *  *  *  *  *  *  *  *  *       *  *  *  *  *  *  *  *  *  *  *  *  *  *       *  *  *  *

-------------------------------|----------------------------------------------|------------------------------------
-------------------------------|----------------------------------------------|------------------------------------
-------------------------------|----------------------------------------------|------------------------------------
-------------------------------|----------------------------------------------|------------------------------------
--6--6--6--6--6--6--6--6--6--6-|--8-------------------------------------------|--6---------------------------------
-------------------------------|--6--6--6--6--6--6--6--6--6--6--6--6--6--6--6-|--4--4--4--4--4--4--4--4--4--4--4--4
  *  *  *  *  *  *  *  *  *  *       *  *  *  *  *  *  *  *  *  *  *  *  *  *       *  *  *  *  *  *  *  *  *  *  *

----------|-------------------------------------------------=----|----2x----------|-------|----||----|----|----|---
----------|-------------------------------------------------=----|----||-12--9----|-------|----||----|----|----|---
----------|-------------------------------------------------=----|----||-------12-|-10h12-|----||--5-|----|--8-|---
----------|-------------------------------------------------=--5-|--5-||----------|-------|----||--5-|--3-|--8-|--8
----------|-------------------------------------------------=--5-|----||----------|-------|----||--3-|--3-|--6-|--8
--4--4--4-|--4--4--4--4--4--4--4--4--4--4--4--4--4--4--4--4-=--3-|----||----------|-------|----||----|--1-|----|--6
  *  *  *    *  *  *  *  *  *  *  *  *  *  *  *  *  *  *  *         ~                                              

4x-------------------------|-------------------------||-------|----4x----------------------------------------------
||-------------------------|-------------------------||-------|----||----------------------------------------------
||-------------------------|-------------------------||--5--6-|----||----------------------------------------------
||-------------------------|-------------------------||--5--6-|----||----------------------------------------------
||--6--6--6--6--6--6--6--6-|--6--6--6--6--6--6--6--6-||--3--4-|----||--5-------------------------------------------
||--4--4--4--4--4--4--4--4-|--4--4--4--4--4--4--4--4-||-------|----||--3--3--3--3--3--3--3--3--3--3--3--3--3--3--3-
       *  *  *  *  *  *  *    *  *  *  *  *  *  *  *                      *  *  *  *  *  *  *  *  *  *  *  *  *  * 

|-------------------------------------------------|-------|----|----------------------------------------------|----
|-------------------------------------------------|-------|----|----------------------------------------------|----
|-------------------------------------------------|-------|----|----------------------------------------------|----
|-------------------------------------------------|--3--6-|----|----------------------------------------------|----
|-------------------------------------------------|--3--6-|----|--5-------------------------------------------|----
|--3--3--3--3--3--3--3--3--3--3--3--3--3--3--3--3-|--1--4-|----|--3--3--3--3--3--3--3--3--3--3--3--3--3--3--3-|--3-
   *  *  *  *  *  *  *  *  *  *  *  *  *  *  *  *                    *  *  *  *  *  *  *  *  *  *  *  *  *  *    * 

----------------------------------------------||-------|----4x-------------------------------------------|---------
----------------------------------------------||-------|----||-------------------------------------------|---------
----------------------------------------------||--5--6-|----||-----------------------------4-------------|---------
----------------------------------------------||--5--6-|----||--------------5----------------------------|--6--3--3
----------------------------------------------||--3--4-|----||-------------------------------------------|---------
--3--3--3--3--3--3--3--3--3--3--3--3--3--3--3-||-------|----||--3--3--3--3-----3--3--3--3-----3--3--3--3-|---------
  *  *  *  *  *  *  *  *  *  *  *  *  *  *  *                   *  *  *  *     *  *  *  *     *  *  *  *           

----|-------------------------------------------|-------------2x----------------|----|----|----||----|----|----|---
----|-------------------------------------------|-------------||----------------|----|----|----||----|----|----|---
----|-----------------------------4-------------|--5--4-----5-||--------------5-|----|----|----||--5-|----|--8-|---
-h5-|--------------6----------------------------|--------6----||--------------5-|----|--5-|----||--5-|--3-|--8-|--8
----|-------------------------------------------|-------------||--3--3--3--3--3-|----|--5-|----||--3-|--3-|--6-|--8
----|--4--4--4--4-----4--4--4--4-----4--4--4--4-|-------------||----------------|----|--3-|----||----|--1-|----|--6
       *  *  *  *     *  *  *  *     *  *  *  *                                                                    

4x-------------------------------------------------|-------------------------------------|-------------------|-----
||-------------------------------------------------|-------------------------------------|-------------------|-----
||--0--0--4--4--5--5--0--0--5--5--7--7--0--0--7--7-|--8--8--0--0--8--8-10-10--0--0-10-12-|-------10--9-------|-10--
||-------------------------------------------------|-------------------------------------|--7-10--------7-10-|-----
||-------------------------------------------------|-------------------------------------|-------------------|-----
||-------------------------------------------------|-------------------------------------|-------------------|-----
    *  *  *  *  *  *  *  *  *  *  *  *  *  *  *  *    *  *  *  *  *  *  *  *  *  *    ha            ha             

----|-------------------|----------------|----------------17-17-|-17-17p15----------------|-------------12-|-13-12-
----|-------------------|----------------|----------15-17-------|----------18-17-18p17p15-|-------13-------|-------
--9-|-12-12-14p12p10----|-10p-9----14-14-|-14-16-17-------------|-------------------------|-12h14----12----|-------
----|----------------14-|-------12-------|----------------------|-------------------------|----------------|-------
----|-------------------|----------------|----------------------|-------------------------|----------------|-------
----|-------------------|----------------|----------------------|-------------------------|----------------|-------
 ha                                                                                                                


----|-------------------------------------------------------|-------------------|----------------------------------
-15-|-------------------------------------------------------|-13-13p11p10-------|----------------------------------
----|-10p-9p-7h10p-9p-7h10p-9p-7-12p10p-9h12p10p-9h12p10p-9-|-------------12--9-|-10p-9p-7h10p-9p-7h10p-9p-7-12-10-
----|-------------------------------------------------------|-------------------|----------------------------------
----|-------------------------------------------------------|-------------------|----------------------------------
----|-------------------------------------------------------|-------------------|----------------------------------

----|-------------|-17p13p12p10h13p12p10h13p12p10----------------------------|-------------------|-----------------
----|-------------|-------------------------------11p10p-8h11p10p-8h11p10p-8-|-13-13p11p10-------|-----------------
-12-|-14-12-10----|----------------------------------------------------------|-------------12--9-|-10p-9p-7h10p-9p-
----|----------11-|----------------------------------------------------------|-------------------|-----------------
----|-------------|----------------------------------------------------------|-------------------|-----------------
----|-------------|----------------------------------------------------------|-------------------|-----------------
                     t                                                                                             

----------------------------------------|----------------------|-------|-------------|-------------|-15b17-15b17---
----------------------------------------|-10-------------------|-15b17-|-15b17-15-13-|-15-15p13----|---------------
--7h10p-9p-7-12p10p-9h12p10p-9h12p10p-9-|----10p-9-------------|-------|-------------|----------14-|---------------
----------------------------------------|----------12p10p-8----|-------|-------------|-------------|---------------
----------------------------------------|-------------------12-|-------|-------------|-------------|---------------
----------------------------------------|----------------------|-------|-------------|-------------|---------------
                                                                     ~                                             

-15b17-15b17/|-20-17-15-17-20-17-15-17-20b20-20-20-19-17----|-17----------------------------|----------------------
-------------|-------------------------------------------20-|----20-17----------------------|----------------------
-------------|----------------------------------------------|----------20-19-17----17-19b21r|-19p17-19p17p16-17-16-
-------------|----------------------------------------------|-------------------19----------|----------------------
-------------|----------------------------------------------|-------------------------------|----------------------
-------------|----------------------------------------------|-------------------------------|----------------------

----------|-------------------|-------------------------|----------------|-------------------|-------------------|-
----------|-13-13-13p12-------|-13-13-12h13p12----------|-15b17-15-13-15-|-15p13p12-13-12----|-13-13-13p12-------|-
----------|-------------14-14-|----------------14p12-14-|----------------|-------------------|-------------14-14-|-
----17----|-------------------|-------------------------|----------------|----------------14-|-------------------|-
-19----15-|-------------------|-------------------------|----------------|-------------------|-------------------|-
----------|-------------------|-------------------------|----------------|-------------------|-------------------|-

-------------------------|-------------|-------16-|-15-||----------------------------------------------|-----------
-13-13-12h13p12----------|-------12-13-|-12-13----|----||----------------------------------------------|-----------
----------------14p12-14-|-12-14-------|----------|----||----------------------------------------------|-----------
-------------------------|-------------|----------|----||----------------------------------------------|-----------
-------------------------|-------------|----------|----||-10-------------------------------------------|--6--------
-------------------------|-------------|----------|----||--8--8--8--8--8--8--8--8--8--8--8--8--8--8--8-|--4--4--4--
                                                              *  *  *  *  *  *  *  *  *  *  *  *  *  *       *  *  

-------------------------------------|----------------------------------------------|------------------------------
-------------------------------------|----------------------------------------------|------------------------------
-------------------------------------|----------------------------------------------|------------------------------
-------------------------------------|--8-------------------------------------------|------------------------------
-------------------------------------|--6--6--6--6--6--6--6--6--6--6--6--6--6--6--6-|--8---------------------------
--4--4--4--4--4--4--4--4--4--4--4--4-|----------------------------------------------|--6--6--6--6--6--6--6--6--6--6
  *  *  *  *  *  *  *  *  *  *  *  *       *  *  *  *  *  *  *  *  *  *  *  *  *  *       *  *  *  *  *  *  *  *  *

----------------|----------------------------------------------|-------------------------------------------------=-
----------------|----------------------------------------------|-------------------------------------------------=-
----------------|----------------------------------------------|-------------------------------------------------=-
----------------|----------------------------------------------|-------------------------------------------------=-
----------------|--6-------------------------------------------|-------------------------------------------------=-
--6--6--6--6--6-|--4--4--4--4--4--4--4--4--4--4--4--4--4--4--4-|--4--4--4--4--4--4--4--4--4--4--4--4--4--4--4--4-=-
  *  *  *  *  *       *  *  *  *  *  *  *  *  *  *  *  *  *  *    *  *  *  *  *  *  *  *  *  *  *  *  *  *  *  *   

----|----2x----------|-------|----||----|----|----|----4x----------------------------------------------|-----------
----|----||-12--9----|-------|----||----|----|----|----||----------------------------------------------|-----------
----|----||-------12-|-10h12-|----||--5-|----|--8-|----||----------------------------------------------|-----------
--5-|--5-||----------|-------|----||--5-|--3-|--8-|--8-||----------------------------------------------|-----------
--5-|----||----------|-------|----||--3-|--3-|--6-|--8-||-10-------------------------------------------|--8--------
--3-|----||----------|-------|----||----|--1-|----|--6-||--8--8--8--8--8--8--8--8--8--8--8--8--8--8--8-|--6--6--6--
       ~                                                      *  *  *  *  *  *  *  *  *  *  *  *  *  *       *  *  

-------------------------------------|----------------------------------------------|------------------------------
-------------------------------------|----------------------------------------------|------------------------------
-------------------------------------|----------------------------------------------|------------------------------
-------------------------------------|-10-------------------------------------------|------------------------------
-------------------------------------|--8--8--8--8--8--8--8--8--8--8--8--8--8--8--8-|--8--8--8--8--8--8--8--8--8--8
--6--6--6--6--6--6--6--6--6--6--6--6-|----------------------------------------------|------------------------------
  *  *  *  *  *  *  *  *  *  *  *  *       *  *  *  *  *  *  *  *  *  *  *  *  *  *    *  *  *  *  *  *  *  *  *  *

                                                                                                                   



-------------------4x-12-12-12p10-------|-12-12-10h12p10----------|-------------|-------------------|-12-12-12p10--
-------------------||-------------13-13-|----------------13p12-13-|-------------|-------------------|--------------
-------------------||-------------------|-------------------------|--9----------|-------------------|--------------
-------------------||-------------------|-------------------------|----12-10-12-|-12p10p-9-10--9----|--------------
--8--8--8--8--8--8-||-------------------|-------------------------|-------------|-------------------|--------------
-------------------||-------------------|-------------------------|-------------|----------------12-|--------------
  *  *  *  *  *  *                                                                                                 

-------|-12-12-10h12p10----------|-------------|----------------|-12-12-12p10-------|-12-12-10h12p10----------|-13b
-13-13-|----------------13p12-13-|-------------|----------------|-------------13-13-|----------------13p12-13-|----
-------|-------------------------|-12-10--9-10-|--9-----9-10--9-|-------------------|-------------------------|----
-------|-------------------------|-------------|----12----------|-------------------|-------------------------|----
-------|-------------------------|-------------|----------------|-------------------|-------------------------|----
-------|-------------------------|-------------|----------------|-------------------|-------------------------|----

-15r13p12-13-|-13p12p10-12-13-12-|-12-12-12p10-------|-13b15-13b15r13-12-|-13-13-13-13-13-13-13-13-15-15-15-15-|-17
-------------|-------------------|-------------13-13-|-------------------|-------------------------------------|---
-------------|-------------------|-------------------|-------------------|-------------------------------------|---
-------------|-------------------|-------------------|-------------------|-------------------------------------|---
-------------|-------------------|-------------------|-------------------|-------------------------------------|---
-------------|-------------------|-------------------|-------------------|-------------------------------------|---

-17-17-17-15-15-15-15-13-13-13-13-15-15-15-15-|-17-|----||----------|----2x----------||
----------------------------------------------|----|----||----------|----||----------||
----------------------------------------------|----|----||----------|----||----------||
----------------------------------------------|----|----||--7--5--3-|----||--7--5--7-||
----------------------------------------------|----|----||--7--5--3-|----||--7--5--7-||
----------------------------------------------|----|----||--5--3--1-|----||--5--3--5-||
Composição de André Olbrich / Hansi Kürsch
Colaboração e revisão:
  • Nikolas Marques
476 exibições
    • ½ Tom
    • A
    • Bb
    • B
    • C
    • Db
    • D
    • Eb
    • E
    • F
    • F#
    • G
    • Ab
  • Adicionar à lista

    0 comentários

    Ver todos os comentários

    Conseguiu tocar?

    0 Tocaram 0 Ainda não

    Grave um vídeo tocando Welcome to dying e nos envie!

    00:00 / 00:00
    Outros vídeos desta música
    Repetir Qualidade Automático
    Outros vídeos desta música
    00:00 / 00:00
    Automático

    Cifra Club Pro

    Aproveite o Cifra Club com benefícios exclusivos e sem anúncios
    Cifra Club Pro
    Aproveite o Cifra Club com benefícios exclusivos e sem anúncios
    OK