Notificações Amigos pendentes

      Bring Me The Horizon

      Diamonds Aren't Forever

      8.393 exibições
      Tom: E
      (intro)
      
      (guitarra 1)
      0:25 - 0:38                                      1              2
      
      |-----------------------------------------------|--------------|-----------|
      |-----------------------------------------------|--------------|-----------|
      |-----------------------------------------------|--------------|-----------|
      |-----------------------------------------------|--------------|-----------|
      |--000-----000-000-000-----4-3-1-000-----000000-|--4-0-3-0-1~--|--4-0-3-0--|
      |--000-0-0-000-000-000-0-0-4-3-1-000-0-0-000000-|--4-0-3-0-1~--|--4-0-3-0--|
      
      PM ...     ... ... ...           ...     .....       .   .         .   .
      
      (guitarra 2)
      0:25 - 0:38
      
      |-----------------------------------------------|  mantenha     |-----------|
      |-----------------------------------------------|   soando e    |-----------|
      |-----------------------------------------------| siga a guit   |-----------|
      |-----------------------------------------------|  1 depois     |-----------|
      |--0~-------------------------------------------|               |--4-0-3-0--|
      |--0~-------------------------------------------|               |--4-0-3-0--|
      
      PM                                                                   .   .
      
      (guitarras 1 e 2)
      0:39 - 0:51
      
      |-----------------------------------------------------------|
      |-----------------------------------------------------------|
      |-----------------------------------------------------------|
      |-----------------------------------------------------------|
      |--000-----000-000-000-----4-3-1-000-----000000--4-0-3-0-1--|
      |--000-0-0-000-000-000-0-0-4-3-1-000-0-0-000000--4-0-3-0-1--|
      
      PM ...     ... ... ...           ...     ......    .   .
      
      "I refuse! I refuse!"
      0:52 - 1:03
      
      |-------------------------------------|
      |-------------------------------------|
      |-------------------------------------|
      |-------------------------------------|
      |--000-----000-----000-----0000-0000--|
      |--000-0-0-000-0-0-000-0-0-0000-0000--|
      
      PM ...     ...     ...     .... ....
      
      "to close my eyes!"
      1:04
      
      |-------------------|
      |-------------------|
      |-------------------|
      |-------------------|
      |--3~--1~--4-3-3-1--|
      |--3~--1~--4-3-3-1--|
      
      
      "I have loved, and I have lost..."
      1:05 - 1:22
      
      |---------------------------------------------------------------------------------|
      |---------------------------------------------------------------------------------|
      |---------------------------------------------------------------------------------|
      |-----------------------------------0-----1---------------------------------------|
      |--0-000-0-0-0-444-111--0-000-0-0-0--------------0-000-0-0-0-444-111-33333-44444--|
      |--0-000-0-0-0-444-111--0-000-0-0-0---000---111--0-000-0-0-0-444-111-33333-44444--|
      
      PM   ...                  ...                      ...
      
      1:22 - 1:24
      
      |--------------|
      |--------------|
      |--------------|
      |--------------|
      |--3~--4~--1~--|
      |--3~--4~--1~--|
      
      
      "I've said it before, and I'll say it again..."
      1:25 - 1:42
      
      |------------------------------------------------------------|
      |------------------------------------------------------------|
      |------------------------------------------------------------|
      |------------------------------------------------------------|
      |--000----------------------------------000-----0-----0------|
      |--000-0-0------------------------------000-0-0-0-0-0-0-0-0--|
      
      PM ...                                  ...     .     .
      
      (guitarra 2)
      1:42
      |--------|
      |--------|
      |--------|
      |--------|
      |--------|
      |--/16b--|
      
      (guitarras 1 e 2)
      1:45 - 2:02
      
      |---------------------------------------------------------------------------------|
      |---------------------------------------------------------------------------------|
      |---------------------------------------------------------------------------------|
      |-----------------------------------0-----1---------------------------------------|
      |--0-000-0-0-0-444-111--0-000-0-0-0--------------0-000-0-0-0-444-111-33333-44444--|
      |--0-000-0-0-0-444-111--0-000-0-0-0---000---111--0-000-0-0-0-444-111-33333-44444--|
      
      PM   ...                  ...                      ...
      
      (guitarra 1)
      "So throw your diamonds in the sky..."
      2:02 - 2:14
      |-----|
      |-----|  O ritmo é facil pegar
      |-----|
      |-----|
      |--0--|
      |--0--|
      
      (breakdown)
      2:14 - 2:27
      
      |-----|-----|
      |-----|-----| Quem fez a tab naum botou e é chato d botar, afine seus ouvidos ;D
      |-----|-----|
      |-----|-----|   no final de cada linha, termina com B5
      |--0--|--1--|
      |--0--|--1--|
      
      PM .
      
      (guitarras 2)
      "I can promise you one thing..."
      2:27 - 2:39                     1              2
      
      |------------------------------|--------------|------------------|
      |------------------------------|--------------|------------------|
      |------------------------------|--------------|------------------|
      |------------------------------|--------------|------------------|
      |--0-1-0-0000000000000--0-1-0--|--00-4-33333--|--00-4-3333-1111--|
      |--0-1-0-0000000000000--0-1-0--|--00-4-33333--|--00-4-3333-1111--|
      
      PM       .............
      
      "We're all going to Hell..."
      2:40 - 2:51
      
      |----------------------------------------------|
      |----------------------------------------------|
      |----------------------------------------------|
      |----------------------------------------------|
      |----------------------------------------------|
      |--0-1-0-1-0-4-333-000--0-1-0-1-0-4-3333-1111--|
      
      
      2:51 - 3:16
      
      |--------------------------|
      |--------------------------|
      |--------------------------|
      |--------------------------|
      |--0~----1p0--4-3~-4-1~-4--|
      |--0~----1p0--4-3~-4-1~-4--|
      
      
      (guitarra 1)
      3:16
      
      |-----------------|
      |-----------------|
      |-----------------|
      |-----------------|
      |--000-----00-00--|
      |--000-0-0-00-00--|
      
      PM ...     .. ..
      
      (guitarra 2)
      3:17
      
      |-----------|
      |-----------|
      |-----------|
      |-----------|
      |--000------|
      |--000-0-0--|
      
      PM ...
      
      (guitarras 1 e 2)
      "We will never sleep..."
      3:19 - 3:32
      
      |-----------------------------------------------------------|
      |-----------------------------------------------------------|
      |-----------------------------------------------------------|
      |-----------------------------------------------------------|
      |--000-----000-000-000-----4-3-1-000-----000000--4-0-3-0-1--|
      |--000-0-0-000-000-000-0-0-4-3-1-000-0-0-000000--4-0-3-0-1--|
      
      PM ...     ... ... ...           ...     ......    .   .
      
      "I refuse! I refuse!..."
      3:32 - 3:45
      
      |-------------------------------------|
      |-------------------------------------|
      |-------------------------------------|
      |-------------------------------------|
      |--000-----000-----000-----0000-0000--|
      |--000-0-0-000-0-0-000-0-0-0000-0000--|
      
      PM ...     ...     ...     .... ....
      
      3:45
      
      |-------------------|
      |-------------------|
      |-------------------|
      |-------------------|
      |--3~--1~--4-3-3-1--|
      |--3~--1~--4-3-3-1--|
      
        Composição: Bring Me the Horizon / Oliver SykesColaboração e revisão:
        • Buda

        Comentários 0

        140 .
        140 cancelar

        conseguiu tocar?

        covers

        Grave um vídeo tocando Diamonds Aren't Forever e mande pra gente!

        Ex.: http://www.youtube.com/watch?v=0IvSvIwGdwk
        ver covers de outras músicas »
        0:00 / 0:00

        Capítulos

          1 versão de violão dificuldade exibições contribuição e correção
          1 versão de guitarra dificuldade exibições contribuição e correção
          1 versão de cavaco dificuldade exibições contribuição e correção
          1 versão de teclado dificuldade exibições contribuição e correção
          1 versão de baixo exibições contribuição e correção
          play/pausefechar subir/descer velocidade
          6ª corda E5ª corda A4ª corda D3ª corda G2ª corda B1ª corda E
            acordes
            publicidade
            fechar
            ok