Cifra Club

Baby One More Time

Britney Spears

Tab de baixo: Principal
exibições 402
(verso 1)
               (x2)                                                  (x3)
|-------|-----------|----5p--------|-----------|---8p--------|------------|
|-------|*---------*|*-.-------.---|-.---------|-.-----------|-----------*|
|-------|*---------*|*-3---r-3-3-r-|-2-r-2-.-5-|-6---r-6-6-r-|-----------*|
|-r-r-r-|--r-e-s-t--|--------------|-------3---|-------------|-1-r-1h3----|
  & 4 &    1 2 3 4     1 & 2 & 3 4   1 2 & 3 4   1 & 2 & 3 4   1 2 & 3 4

(1st chorus)
|---5p--------|---------|---8p--------|-----------|---5p--------|
|-.-------.---|-.-------|-.-----------|-----------|-.-------.---|
|-3---r-3-3-r-|-2-r---5-|-6---r-6-6-r-|-----------|-3---r-3-3-r-|
|-------------|-----3---|-------------|-1-r-1h3-3-|-------------|
  1 & 2 & 3 4   1 2 3 4   1 & 2 & 3 4   1 2 & 3 4   1 & 2 & 3 4

|---------|---8p--------|-----------|
|---------|-------------|-----------|
|-2-r-----|-6---r-6-6-r-|---------1-|
|-----4-6-|-------------|-1-r-1h3---|
  1 2 3 4   1 & 2 & 3 4   1 2 & 3 4  

(verso 2)                                           
|---------|-----------|---8p--------|-----------|
|---------|-.---------|-.-----------|-----------|
|---------|-2-r-r-.-5-|-6---r-6-6-r-|-----------|
|-r-e-s-t-|-------3---|-------3-----|-1-r-1h3---|
  1 2 3 4   1 2 & 3 4   1 & 2 & 3 4   1 2 & 3 4

                                                 (x2)
|----5p--------|-----------|---8p--------|------------|
|*-.-------.---|-.---------|-.-----------|-----------*|
|*-3---r-3-3-r-|-2-r-2-.-5-|-6---r-6-6-r-|-----------*|
|--------------|-------3---|-------------|-1-r-1h3----|
   1 & 2 & 3 4   1 2 & 3 4   1 & 2 & 3 4   1 2 & 3 4

(2nd chorus)
|---5p--------|---------|---8p--------|-----------|---5p--------|
|-.-------.---|-.-------|-.-----------|-----------|-.-------.---|
|-3---r-3-3-r-|-2-r---5-|-6---r-6-6-r-|-----------|-3---r-3-3-r-|
|-------------|-----3---|-------------|-1-r-1h3-3-|-------------|
  1 & 2 & 3 4   1 2 3 4   1 & 2 & 3 4   1 2 & 3 4   1 & 2 & 3 4

|---------|---8p--------|---------|
|---------|-------------|---------|
|-2-r-----|-6---r-6-6-r-|---------|
|-----4-6-|-------------|-r-e-s-t-|
  1 2 3 4   1 & 2 & 3 4   1 2 3 4 

(interlude)
                     (x2)        (x7)
|------------|------------|-----------|-----------|
|*-----------|-----------*|*---------*|-----------|
|*---------.-|-----------*|*---------*|-----------|
|--0/8\0-0/6-|-0/8\0-r-r--|--r-e-s-t--|-r-r-0/8\0-|
   1  2  3 4   1  2  3 4     1 2 3 4    1 2 3  4

(end)
|---5p--------|---------|---8p--------|-----------|-----------|
|-.-------.---|-.-------|-.-----------|-----------|-----------|
|-3---r-3-3-r-|-2-r---5-|-6---r-6-6-r-|-----------|-----.-----|
|-------------|-----3---|-------------|-1-r-1h3-3-|-4---4-r-4-|
  1 & 2 & 3 4   1 2 3 4   1 & 2 & 3 4   1 2 & 3 4   1 2 3 4 &

|---------|---------|---------|---------|
|---------|---------|---------|---------|
|-----.---|---------|-------1-|-3-r-r-r-|
|-6---6-6-|-4-r-4-3-|-1-r-3---|---------|
  1 2 3 4   1 2 3 4   1 2 3 4   1 2 3 4  

|---5p--------|---------|---8p--------|-----------|---5p--------|
|-.-------.---|-.-------|-.-----------|-----------|-.-------.---|
|-3---r-3-3-r-|-2-r---5-|-6---r-6-6-r-|-----------|-3---r-3-3-r-|
|-------------|-----3---|-------------|-1-r-1h3-3-|-------------|
  1 & 2 & 3 4   1 2 3 4   1 & 2 & 3 4   1 2 & 3 4   1 & 2 & 3 4

|---------|---8p--------|-----------|
|---------|-------------|-----------|
|-2-r-----|-6---r-6-6-r-|---------1-|
|-----4-6-|-------------|-1-r-1h3---|
  1 2 3 4   1 & 2 & 3 4   1 2 & 3 4  

|---5p--------|---------|---8p--------|-----------|---5p--------|
|-.-------.---|-.-------|-.-----------|-----------|-.-------.---|
|-3---r-3-3-r-|-2-r---5-|-6---r-6-6-r-|-----------|-3---r-3-3-r-|
|-------------|-----3---|-------------|-1-r-1h3-3-|-------------|
  1 & 2 & 3 4   1 2 3 4   1 & 2 & 3 4   1 2 & 3 4   1 & 2 & 3 4

|---------|---8p--------|---------|
|---------|-------------|---------|
|-2-r-----|-6---r-6-6-r-|---------|
|-----4-6-|-------------|-r-e-s-t-|
  1 2 3 4   1 & 2 & 3 4   1 2 3 4
Composição: Max MartinColaboração e revisão:
  • Élison Duarte

0 comentários

    mostrar mais comentários

    Conseguiu tocar?

    0tocaram0ainda não

    Grave um vídeo tocando Baby One More Time e mande pra gente!

    00:00 / 00:00
    outros vídeos desta música
    repetirqualidadeautomática
    Outro vídeos desta música
      00:00 / 00:00
      automática
      OK