Cifra Club

Aprenda

Acoustic Song

Bruce Dickinson

Cifra: Principal (violão e guitarra)
Já pensou em usar uma coleção de roupas do Cifra Club? Responda as perguntas abaixo e nos ajude nessa missão! →
tom: G
[Intro]  Em   D   Am   Em
         Em   D   Am   Em

E|-----------------------2--------2h3p2----------------------------------------|
B|-8--10--12---15/----------3-----3-----3----1------1-------------0------------|
G|-9--11--12---16/-------------2----------2--2--2-----2---------0---0--------0-|
D|-----------------------0-------------------2----2-----2-----2-------2--------|
A|-7--9---10---14/---------------------------0------------0-------------2------|
E|----------------------------------------------------------0-------------0----|

E|-----------------------2--------2h3p2----------------------------------------|
B|-8--10--12---15/----------3-----3-----3----1------1-------------0------------|
G|-9--11--12---16/-------------2----------2--2--2-----2---------0---0--------0-|
D|-----------------------0-------------------2----2-----2-----2-------2-----2--|
A|-7--9---10---14/---------------------------0------------0-------------2------|
E|----------------------------------------------------------0-------------0----|

E|-----0------------------------------------------------------0-----------------|
B|-3-3----------0-------------------------0--------------3-3-----------0--------|
G|------------0---0---------0-----------0---0---------0--------------0---0------|
D|----------2-------2-----2-----------2-------2-----2--------------2-------2----|
A|--------------------2----------0--------------2----------------------------2--|
E|-2---0--0-------------0------2----0-------------0------2----0--0--------------|

E|--------------|
B|---------3----|
G|-----0-----2--|
D|---2----------|
A|--------------|
E|-0-----2------|

Em                      D
We live and die like all the rest
       Am                          Em
Every summer has its sunset every year
Em                          D
Love and hope put to the test
          Am                             Em
Every grain of comfort holds the seed of fear

 Am          Em
And I loved you long ago
D/F#  G            D  D4 D9 D
  And I love you still
       Am
But the roads that we have travelled
       Em
Took us far apart
G
Scattered to the four winds
D                  Bm
Some day we will find the time to heal

( Em  D  Am  Em )

      Em        D     Am   Em  (Obs:Tocada com mesma Tab da intro)
And I loved you long ago

[Solo]  Em  D  Am  Em
        Em  D  Am  Em
        Em  D  Am  Em

[Solo 1]

E|--------------------------------------------------------|
B|--------------------------------------------------------|
G|-9-11-1112----11/9-911---14b16--14-12---12-14-12--------|
D|---------------------------------------------------14~~-|
A|--------------------------------------------------------|
E|--------------------------------------------------------|

E|--------14~---12/10-10-1012----------------------------------15~~-|
B|-----17----------------------10-10~--15b17--1315-13/12--12~-------|
G|---16-------------------------------------------------------------|
D|-14---------------------------------------------------------------|
A|------------------------------------------------------------------|
E|------------------------------------------------------------------|

E|------------------------------------------------------------------------------|
B|-15b17--13-12-13--15-13-12----13-12-------------------------------------------|
G|---------------------------14-------14-14-14-14-14b16------11-1112~-12b14r12--|
D|--------------------------------------------------------14--------------------|
A|------------------------------------------------------------------------------|
E|------------------------------------------------------------------------------|

E|-----------------------------------------------------|
B|-----------------------------------------------------|
G|-11~~--1214-14~~-12-14~-12-14~-12-14-14b16r14-12-----|
D|-------------------------------------------------14~-|
A|-----------------------------------------------------|
E|-----------------------------------------------------|

E|----15-17-17b19~------15-17-17b19~--17-15------|
B|-17----------------17---------------------17~--|
G|-----------------------------------------------|
D|-----------------------------------------------|
A|-----------------------------------------------|
E|-----------------------------------------------|

[Solo 2]

E|-----------------------------|
B|-8---10/-7---13---12/-8---7--|
G|-9---11/-7---14---12/-9---7--|
D|-----------------------------|
A|-----------------------------|
E|-----------------------------|

E|--------------------------------|
B|-8---10/-7---7-8-13---15/-8---8-|
G|-9---11/-7---7-9-14---16/-9---9-|
D|--------------------------------|
A|--------------------------------|
E|--------------------------------|

Am             Em
And the stars that bear my name
D/F#  G                      D  D4 D9 D
  Are the wounds that never heal
        Am
But the road that we have travelled
      Em
Took us far apart
G                 D     Bm
And I love you still

Em       D         Am    Em
  And I loved you long ago

[Final]

E|-----------------------2--------2h3p2----------------------0--|
B|-8--10--12---15/----------3-----3-----3----1-------1/31----0--|
G|-9--11--12---16/-------------2----------2--2----2----------0--|
D|-----------------------0-------------------2--2----2/42----2--|
A|-7--9---10---14/---------------------------0---------------2--|
E|-----------------------------------------------------------0--|
Colaboração e revisão:
  • Stenilson Magalhães
  • Luana Spier
2.992 exibições
    • ½ Tom
    • A
    • Bb
    • B
    • C
    • Db
    • D
    • Eb
    • E
    • F
    • F#
    • G
    • Ab
  • Adicionar à lista

    0 comentários

    Ver todos os comentários

    Conseguiu tocar?

    2 Tocaram 0 Ainda não

    Grave um vídeo tocando Acoustic Song e nos envie!

    00:00 / 00:00
    outros vídeos desta música
    repetir qualidade Automático
    Outros vídeos desta música
    00:00 / 00:00
    Automático

    Cifra Club Pro

    Aproveite o Cifra Club com benefícios exclusivos e sem anúncios
    Cifra Club Pro
    Aproveite o Cifra Club com benefícios exclusivos e sem anúncios
    OK