Cifra Club

Aprenda

Sexperienced

Cachorro Grande

Tab de baixo: Principal
Já pensou em usar uma coleção de roupas do Cifra Club? Responda as perguntas abaixo e nos ajude nessa missão! →
________________________Introdução_______________________________________

G:----------------------------4----------4--------|
D:------------------------2/4---4----2/4---4------|
A:--2--2--2--2--2--2---2----------2----------2-3--|
E:------------------------------------------------|

G:-----------------------------------------------------9*11*9----|---------------------------------------------|
D:-----------------------------------------------7/11------------|---------------------------------------------|
A:--4-4--------4-4-------4-------7-7--------7-7------------------|--4-4--------4-4------4-----7-7----------7-7-|
E:------4-4--4------4-4----4-4-------7-7--7----------------------|------4-4--4------4-4---4-------7-7--7-------|

________________________ Inicio __________________________________________

Quero uma garota que jah tenha..................

G:-----------------------9*11*9-|---------------------------------|
D:------------------7/11--------|---------------------------------|
A:-7-7---------7-7--------------|--4-4---------4-4----4-----------|
E:------7-7--7------------------|------4-4--4-------4---4-4-------|

Nao tenho razao......

G:-----------------------9*11*9-|-------------------------------------------------------|
D:------------------7/11--------|-----------------------------------------------------4-|
A:-7-7---------7-7--------------|--4-4---------4-4-----------4--------------------------|
E:------7-7--7------------------|------4-4--4-------------------5-5----5---2-2-----2----|

G:--------------------------------------------------------------------------|
D:--------------------------------------------------------------------------|
A:--4-4-------4----------------4-4-----4---------------4-4------4-----------|
E:-------4-4----4---5-5---5--------4-4----5---5----2--------4-4---4---------|

G:----------------------------4----------4--------|
D:------------------------2/4---4----2/4---4------|
A:--2--2--2--2--2--2--0-2----------2----------2-3-|
E:------------------------------------------------|

depois volta no Inicio e repete


_______________________Solo__________________________________

G:------------------------------------------------------------------------------------------|
D:------------------------------------------------------------------------------------------|
A:--4-4-4-4-----2/4--2-----------------------2------4-4-4-4---2/4--2------------------------|
E:---------------------4-2--0-0-0-0-----2--4---4---------------------4-2----0-0-0-0--2--4-5-|

Nao tenho medo de ti dizer.......

G:------------------------------------------------------------------------------------------|
D:------------------------------------------------------------------------------------------|
A:----------------4-----4-4-------4--------------4-4-----4----------------------------------|
E:---5-5---2-2--2---2---------4-4----4--5-5---5------4-4----5---5----2----------------------|

G:------------------------|     G:------------------------|
D:------------------------|     D:------------------------|
A:--4-4-----4-------------|2x   A:--4-4-----4-------------|
E:------4-4----5---5----2-|     E:------4-4----5---5------|

_____________________Fim________________________________________

G:---------4------------------4------------4-------------------------4/6--4---------------------|
D:-----2/4---4------------2/4---4------2/4---4-------------------------------6-4---2------------|
A:---2----------2-2-2---2------------2------------2-3-----4-4-4-4-------------------------------|
E:----------------------------------------------------------------------------------------------|


obs: 9*11*9 é nota ligada.... caso tiver duvidas mande um email... Obrigado 





_______________________________________________________
Composição de Jerônimo Lima
Colaboração e revisão:
  • Fred Massaferro
10.678 exibições

0 comentários

Ver todos os comentários
00:00 / 00:00
Outros vídeos desta música
Repetir Qualidade Automático
Outros vídeos desta música
00:00 / 00:00
Automático

Cifra Club Pro

Aproveite o Cifra Club com benefícios exclusivos e sem anúncios
Cifra Club Pro
Aproveite o Cifra Club com benefícios exclusivos e sem anúncios
OK