Cifra Club

Sob um céu de blues

Os Cascavelletes

Cifra: Principal
exibições 215.693
Tom: G
(intro) G C (4x)   Em Bm (2x)
        C Am  (G C) (2x)

G               C    G                                  C       Em
Bom dia sol nascente, eu vim prá contar minha triste história
         Bm              Em       Bm   C      Am
Minha garota me abandonou numa estação de trem

                  G     C
Sob um céu de blues
                  G    C
Sob um céu de blues

G                            C                     G  C      Em
Eu vou bater, eu vou bater, e vou quebrar a tua janeeela
          Bm           Em          Bm     C       Am
Eu vou rolar com os bêbados pelas ruas imundas

                  G    C
Sob um céu de blues
                  G    C
Sob um céu de blues

G              C                  G              C        Em
Ma-ma-ma-ma-ma baby, aonde está você, aonde você foi
                 Bm      Em             Bm     C      Am
Me arranje uma bebida forte, e uma companhia na cama

                  G                      C
Sob um céu de blues  (Sob um céu de blues)
                    G                      C
Por toda minha desgraça  (Sob um céu de blues)
                          G                      C
A dança das minhas lágrimas  (Sob um céu de blues)
                 G                         C
Sob um céu de blues  (Sob um céu de blues)

D            C/E               D          C     Am
Existe uma estrada que me leva ao meu destino
D          C/E             D            C      Am
Existe uma placa que me diz que eu tô sozinho

                   G                    C
Sob um céu de blues (Sob um céu de blues)
                    G                     C
Por toda minha desgraça (Sob um céu de blues)
                          G                      C
A dança das minhas lágrimas (Sob um céu de blues)
                  G                      C
Sob um céu de blues (Sob um céu de blues)


(solo) D E/C D C (2x) Am

~ = vibrato
H = Harmônico
()= repete

E|------------10-|----10/12-15-12-------15^-|----------------------------|
B|-(10)---10^----|-10-------------15-12-----|-/(15)/(15)/15-15-12--------|
G|-(9^)-7--------|-9^-----------------------|-/(14)/(14)/14-------14-12~-|
D|---------------|--------------------------|----------------------------|
A|---------------|--------------------------|----------------------------|
E|---------------|--------------------------|----------------------------|

E|----12----------15^-|-15-12----------------------------------|
B|-------15-12--------|-------15-12----------------------------|
G|-14^---------14-----|-------------14^-14--12------14-14-12---|
D|--------------------|------------------------14-12-----------|
A|--------------------|----------------------------------------|
E|--------------------|----------------------------------------|

                           H
E|----------------------------|
B|-/(15)/(15)/15-15^----------|
G|-/(14)/(14)/14------14^-12~-|
D|----------------------------|
A|----------------------------|
E|----------------------------|

( Am G C G C )

G                  C           G               C     Em
A fumaça cinza das fábricas me dá um peso na alma
             Bm           Em            Bm         C           Am
Como se eu tivesse carregando cem toneladas de desilusões

                   G                    C
Sob um céu de blues (Sob um céu de blues)
                        G                  C
Por toda minha desgraça (Sob um céu de blues)
                           G                     C
A dança das minhas lágrimas (Sob um céu de blues)
                     G                    C
Sob um céu de blues (Sob um céu de blues)

A                  D
Sob um céu de blues
A                  D
Sob um céu de blues

G                  C
Sob um céu de blues
Sob um céu de blues
Sob um céu de blues
Sob um céu de blues

G                           C Am G C
Sob um céu de blu--u--u--u-ues
Acordes para:
    Colaboração e revisão:
    • Rodrigo Victoria
    • Roberto Santos
    • Élison Duarte

    0 comentários

      mostrar mais comentários

      Conseguiu tocar?

      21tocaram1ainda não

      Grave um vídeo tocando Sob um céu de blues e mande pra gente!

      00:00 / 00:00
      outros vídeos desta música
      repetirqualidadeautomática
      Outro vídeos desta música
        00:00 / 00:00
        automática
        OK