Cifra Club

Another's Arms

Coldplay

Tab de baixo: Principal
exibições 57
Bem fácil, vamos lá:

1º Refrão (2x)
G |--------------------------|
D |--------------------------|
A |-----6-6--6-6-------------|
E |-1-1-----------6-6--------|


1º Instrumental: sem contrabaixo;

2º Verso: sem contrabaixo;


2º Refrão (4x)
G |--------------------------|
D |--------------------------|
A |-----6-6--6-6-------------|
E |-1-1-----------6-6--------|


2º Instrumental  
G |-----------------------------|     G |----------------------------|
D |-----------------------------|     D |----------------------------|
A |-------6--6-------6--6-------|     A |------6--6--4--4--3--3------|
E |-1-1-/-------1-1/------------|     E |-1--1-----------------------| 


Nas versões originais, Guy Berryman não toca esse solo, mas na versão de CD é perfeitamente perceptível, além de ser bem bacana e simples:

G |---------------------------------------------------------------------------------|
D |------13---15---13---18---17---15-13~------13---15---13---18---17---15-13~-------|
A |----15---15---15---15---15---15---------15---15---15---15---15---15--------------|
E |---------------------------------------------------------------------------------|


G |---------------------------------------------------------------------------------|
D |------13---15---13---18---17---15-13~-----------13---15---13---18---17---15-13\\\|
A |----15---15---15---15---15---15---------------15---15---15---15---15---15--------|
E |---------------------------------------------------------------------------------|



3º Refrão ( 4x )
G |--------------------------| 
D |--------------------------| 
A |------6-6----6-6----------| 
E |-1-1-----6h8-----6-6--643-|
Colaboração e revisão:
  • Vinicius Chagas

0 comentários

    mostrar mais comentários

    Conseguiu tocar?

    0tocaram0ainda não

    Grave um vídeo tocando Another's Arms e mande pra gente!

    00:00 / 00:00
    outros vídeos desta música
    repetirqualidadeautomática
    Outro vídeos desta música
      00:00 / 00:00
      automática
      OK