Cifra Club

Preparar, Apontar, Fogo (solo Intro)

Confraria da Costa

Cifra: Principal (violão e guitarra)
tom: F
(1ª parte)

E|----------------------------------------5---------------5--8-----5----------------------------------|
B|-------------6----------------6-----6-----6--------6----------------6------------------------------|
G|---------7------7---------7-----7----------------------------------------7-----------7-7---7~~----|
D|--/7--7--------------------------------------------------------------------------/7---7----7~~--|

E|-------5--4h5----------/10--10--10\-----(10)--11--10------10------------10--10--10---------|
B|-(6)-------------6------/10--10--10\----(10)-----------13-------11--13--10--10--10---------|
G|-(7)----------------7---/10--10--10\----(10)----------------------------10--10--10--9------|
D|-(7)------------------------------------------------------------------------------------12-|

(2ª parte)
G|---------------------------------------------------------------------------------------------------|
D|--/7--6--7----/7--6--7---------------------------------------------------------------------------|
A|----------------------------------------/8--7-----/8--7--8-----/8--7--8-----/8--7--8----5------|
E|---------------------------------------------------------------------------------------------------|

G|------------------------------------------------------------------------------------------------------|
D|-/7--/7---7/8--7--5---7--7/8--7--5/7--5--3---5--5/7--5--3/5--3--2---3--3/5--3--2/3--2--0-|
A|------------------------------------------------------------------------------------------------------|
E|------------------------------------------------------------------------------------------------------|
00:00 / 00:00
Outros vídeos desta música
Repetir
Outros vídeos desta música
Compositor não encontrado.
Colaboração e revisão:
  • Luke Skydyveler
396 exibições
    • ½ Tom
    • A
    • Bb
    • B
    • C
    • Db
    • D
    • Eb
    • E
    • F
    • F#
    • G
    • Ab
  • Adicionar à lista

    0 comentários

    Ver todos os comentários

    Conseguiu tocar?

    0 Tocaram 0 Ainda não

    Grave um vídeo tocando Preparar, Apontar, Fogo (solo Intro) e nos envie!

    Entre para oCifra Club PRO

    Tenha acesso a benefícios exclusivos no App e no Site

    • Chega de anúncios

    • Prioridade de compra em lançamentos

    • Mais recursos no app do Afinador

    • Atendimento Prioritário

    • Descontos nos produtos Cifra Club

    • Ajude a produzir mais conteúdo

    00:00 / 00:00

    Cifra Club Pro

    Aproveite o Cifra Club com benefícios exclusivos e sem anúncios
    Cifra Club Pro
    Aproveite o Cifra Club com benefícios exclusivos e sem anúncios
    OK