Cifra Club

Ramble Tamble

Creedence Clearwater Revival

Cifra: Principal (violão e guitarra)
Selo Cifra Club: esta cifra foi revisada para atender aos critérios oficiais da nossa Equipe de Qualidade.
tom: G
E|-------------------|
B|---------------5-3-|
G|---------------5-4-|
D|---------3-3p0-----| x8
A|-----3h5-----------|
E|-0-0---------------|


[Main rhythm pattern]

E|---2--0-2--0-2--2--0-2---|
B|---3--0-3--0-3--3--0-3---|
G|---2--0-2--0-2--2--0-2---|
D|---0--0-0--0-0--0--0-0---|
A|-------------------------|
E|-------------------------|


[Bridge]

E|------------------|
B|------------------|
G|----------2-2-2-2-|
D|----------0-0-0-0-| x3
A|------------------|
E|-/3-/3-0----------|

E|----------------------|
B|----------------------|
G|--------------2-2-2-2-|
D|--------------0-0-0-0-| x7
A|-/3-2-0---------------|
E|--------2b3-0---------|

E|-----------------|
B|------------3----|
G|------------2----|
D|------------0----|
A|-/3-2-0-----0----|
E|--------2b3-0----|


[Instrumental]

E|---------0-------|---------------3-|-----2------|-3------2---|
B|-------1---1-----|-------1-----3---|-----3------|-3------3---|
G|-----2-----------|-----0-----0-----|---2------2-|------2-----|
D|---2-------------|---2-------------|-0------0---|----0-------|
A|-0-----------0h2-| h3-------2-------|------------|------------|
E|-----------------|-----------------|------------|------------|
  D chord with various rhythmics ---->________________________>


[Solo]

E|-----------------------|-----------------------|------------------------|
B|-----------------------|-----------------------|--------------12--10----|
G|-5/9---b11-r9--9--9----|-5/9---b11-r9--9--9----|-5/9-------12-----------|
D|-----------------------|-----------------------|------------------------|
A|-----------------------|-----------------------|------------------------|
E|-----------------------|-----------------------|------------------------|

E|---------------------------------|-----------------------|--------------|
B|-7/13---13-13p12h13p12h13p12-10--|-8-8\7--7\5--5\3-------|--------------|
G|---------------------------------|------------------5----|-5--4--7------|
D|---------------------------------|-----------------------|--------------|
A|---------------------------------|-----------------------|--------------|
E|---------------------------------|-----------------------|--------------|

E|-----------------------|----------------------|
B|-----------------------|----------------------|
G|-5/9---b11-r9--9--9----|-5/9---9/12---11------|
D|-----------------------|----------------------|
A|-----------------------|----------------------|
E|-----------------------|----------------------|

E|-----------------------|----------------------|
B|-----------------------|----------------------|
G|-5/9---b11-r9--9--9----|-5/9---9/12---11------|
D|-----------------------|----------------------|
A|-----------------------|----------------------|
E|-----------------------|----------------------|

E|-----------------------|-----------------------|
B|-----------------------|-----------------------|
G|-5/9---b11-r9--9--9----|-5/9---b11-r9--9--9----|
D|-----------------------|-----------------------|
A|-----------------------|-----------------------|
E|-----------------------|-----------------------|

E|-----------------------|
B|-----------------------|
G|-5/9---b11-r9--9--9----|
D|-----------------------|
A|-----------------------|
E|-----------------------|

Then:

E|---------------------------|------------------------|
B|---------------------------|------------------------|
G|---------------------------|------------------------|
D|-0-0-0-0-0-0-0-0-----------|-0-0-0-0-0-0-0-0-/3-2-0-| x2
A|-----------------/3-2------|------------------------|
E|----------------------/3-0-|------------------------|

E|---2--0-2--0-2--2--0-2---|
B|---3--0-3--0-3--3--0-3---|
G|---2--0-2--0-2--2--0-2---|
D|---0--0-0--0-0--0--0-0---| x2
A|-------------------------|
E|-------------------------|

E|------------2---|
B|-3--3--3----3---|
G|-2--2--2----3---|
D|-0--0--0----0---| x4
A|-3--2--0--------|
E|-----------0----|

E|--------------------------|
B|-------3------------------|
G|-1--0--2------------------|
D|-0--0--0------------------| x3
A|-3--2--0--------0-/3-2-0--|
E|------------0-3---------0-|

Then play the last verse and end with:

E|------------------|
B|------------------|
G|----------2-2-2-2-|
D|----------0-0-0-0-| x3
A|------------------|
E|-/3-/3-0----------|

E|----------------------|
B|----------------------|
G|--------------2-2-2-2-|
D|--------------0-0-0-0-| x7
A|-/3-2-0---------------|
E|--------2b3-0---------|

E|-----------------|-0---------------|
B|------------3----|-1---------------|
G|------------2----|-2---------------|
D|------------0----|-0---------------|
A|-/3-2-0-----0----|-0---------------|
E|--------2b3-0----|-----------0-----|


************************************

| /  Slide up
| b  Bend
| r  Release
| h  Hammer-on
| p  Pull-off
| \  Slide down
Outros vídeos desta música
251 exibições
    • ½ Tom
    • A
    • Bb
    • B
    • C
    • Db
    • D
    • Eb
    • E
    • F
    • F#
    • G
    • Ab
  • Adicionar à lista

Afinação da cifra

Afinador online

    0 comentários

    Ver todos os comentários

    Entre para o Cifra Club PRO

    Tenha acesso a benefícios exclusivos no App e no Site

    • Chega de anúncios

    • Mais recursos no app do Afinador

    • Atendimento Prioritário

    • Aumente seu limite de lista

    • Ajude a produzir mais conteúdo

    Cifra Club Pro

    Aproveite o Cifra Club com benefícios exclusivos e sem anúncios
    Cifra Club Pro
    Aproveite o Cifra Club com benefícios exclusivos e sem anúncios
    OK