Cifra Club

Aprenda

Ao Que É Bom Nessa Vida

Dance Of Days

Cifra: Principal (violão e guitarra)
Tom: A#
Guitarra 1:

Intro:
e|-------------------------------------------------------------------------------------------------|
B|-------------------------------------------------------------------------------------------------|
G|-------------------------------------------------------------------------------------------------|
D|-8-8-8-8-8-8-8-8-6-6-6-6-6-6-6-6-8-8-8-8-8-8-8-8-8-8-8-8-8-8-8-8-8-8-8-8-8-8-8-8-6-6-6-6-6-6-6-6-|
A|-8-8-8-8-8-8-8-8-6-6-6-6-6-6-6-6-6-6-6-6-6-6-6-6-5-5-5-5-6-6-6-6-8-8-8-8-8-8-8-8-6-6-6-6-6-6-6-6-|
E|-6-6-6-6-6-6-6-6-4-4-4-4-4-4-4-4---------------------------------6-6-6-6-6-6-6-6-4-4-4-4-4-4-4-4-|

|-------------|
|-------9-8---|
|-6/8-8-----8-|
|-------------|
|-------------|

Verso 1:
e|-------------------------------------------------------------------------|
B|-----8--8-8--9-8-------8--8-8--9-8-11-------8--8-8--9-8---------9-8---11-|
G|-6/8-8--8-8-----8--6/8-8--8-8-----------6/8-8--8-8-----8--6/8-8-----8----| 2x
D|-------------------------------------------------------------------------|
A|-------------------------------------------------------------------------|
E|-------------------------------------------------------------------------|

Refrão:
e|-----------------------------|
B|-11-11-11-11-9-9-9-9-8-8-8-8-|
G|--8--8--8--8-8-8-8-8-8-8-8-8-| Várias vezes.
D|-----------------------------|
A|-----------------------------|
E|-----------------------------|

Verso 2:
e|------------------------------------------------------|
B|-------9-8----------9-8-11--------9-8----9-8---9-8-11-|
G|-6/8-8-----8--6/8-8---------6/8-8-----8------8--------|
D|------------------------------------------------------|
A|------------------------------------------------------|
E|------------------------------------------------------|

Na parte "Tem um lugar em mim que é só teu... o que a gente escolheu" :
e|---------------------|
B|--9-8--11-11-11-9-8--|
G|-8---8-------------8-| 4x
D|---------------------|
A|---------------------|
E|---------------------|

Riff 1:
e|-----------------------------------------------------------||-----------------------------------------|
B|------------9-9-9-9-9-8------------9-9-9-9-9-8-------------||--8----8----8--9-8-----8----8----8--9-8--|
G|-8*-8*-8*-8*------------8*-8*-8*-8*------------8*-8*-8*-8*-||-8-8--8-8--8-8----8---8-8--8-8--8-8----8-|
D|-----------------------------------------------------------||-----------------------------------------|
A|-----------------------------------------------------------||-----------------------------------------|
E|-----------------------------------------------------------||-----------------------------------------|

Guitarra 2:

Intro:
e|---------------------------------------------|    |-------------------|
B|---------------------------------------------|    |-------------------|
G|-8-8-8-8-12-12-12-12-10-10-10-10-13-13-13-13-| 3x |-------------------|
D|-x-x-x-x-x-x-x-x-x-x--x--x--x--x--x--x--x--x-|    |-8/10-10--8-10-8-6-|
A|-6-6-6-6-10-10-10-10--8--8--8--8-11-11-11-11-|    |-8/10-10--8-10-8-6-|
E|---------------------------------------------|    |-6/8--8---6-8--6-4-|

Riff 1:
e|-----------------------------------------------|
B|-----------------------------------------------|
G|-----------------------------------------------| Repete isso algumas vezes.
D|-5--6/8-6-5---8/10-8-6-5--6/8-6-5---8/10-8-6-5-|
A|-----------6---------------------6-------------|
E|-----------------------------------------------|

A#,C A# C A# G#
    Tudo mudou.
A#,C A# C A# G#
    O que foi que aconteceu
A#,C        A# C A# G#                   A#,C A# C A# G#
    que de repente acordamos nesses dias?
         A#,C A# C A# G#
    Ainda posso sentir o sabor
A#,C    A# C A# G#    
    do que a gente perdeu.
A#,C      A# C A# G#              A#,C A# C A# G#
    E ainda penso em você, acredita?

    A#                      C          A#
    Vem dar valor ao que é bom nessa vida
             G#                   D#
    que é tolice viver por viver,
                     A#                   C          A#
    e já é dia de deixar pra trás a dor e o "tanto faz".
             G#   D#
    É cedo ainda.

A#,C A# C A# G#   
    Fomos tolos 
A#,C  A# C A#  G#
    e egoístas pra crescer.
A#,C A# C A# G#
    Crescer sem alegria.

Refrão.
                                                   _
    Dizer "pra sempre" é bem menos                  |
    do que sentir na carne querer de verdade.       |- As duas guitarras tocam a "intro."
    E tem coisas que não vão sumir, você sabe.     _|

   A#                  C            G# 
    Tem um lugar em mim que é só teu
                  D#
    e nada vai mudar porque é meu.
   A#                    C    A#
    Mesmo que a gente deixe errado
             G#            D#     C
    a que a gente escolheu.

                                               _
    Vem dar valor ao que é bom nessa vida       |
    que é tolice viver por viver,               |- Só o baixo
    e já é dia de                              _|

                                                         _
    deixar pra trás a dor e o "tanto faz".                 |
    É cedo ainda.                                          |
    Vem dar valor ao que é bom nessa vida                  |- Guitarras 1 e 2 tocam Riff 1.
    que é tolice viver por viver,                          |
    e já é dia de deixar pra trás a dor e o "tanto faz".   |
    É cedo ainda.                                         _|


   |Vem dar valor ao que é bom nessa vida
2x |que é tolice viver por viver,                            (No ultimo refrão a Guitarra 2 toca o mesmo riff da intro.
   |e já é dia de deixar pra trás a dor e o "tanto faz".      e a guitarra 1 muda um pouco o riff do refrão mas com as
   |É cedo ainda. Ainda.                                            mesmas posições.)



*Nos versos, todos os acordes são abafados, menos G# .
Composição de Nene Altro / Tyello
Colaboração e revisão:
  • Andrey Cardozo
7.929 exibições
    • ½ Tom
    • A
    • Bb
    • B
    • C
    • Db
    • D
    • Eb
    • E
    • F
    • F#
    • G
    • Ab
  • Adicionar à lista

    0 comentários

    Mostrar mais comentários

    Conseguiu tocar?

    0 Tocaram 0 Ainda não

    Grave um vídeo tocando Ao Que É Bom Nessa Vida e mande pra gente!

    00:00 / 00:00
    outros vídeos desta música
    repetir qualidade Automático
    Outros vídeos desta música
    00:00 / 00:00
    Automático

    Cifra Club Pro

    Aproveite o Cifra Club com benefícios exclusivos e sem anúncios
    7 dias grátis
    Cifra Club Pro
    Aproveite o Cifra Club com benefícios exclusivos e sem anúncios
    7 dias grátis
    OK