Cifra Club

Professor da Malandragem (part. Ronaldinho Gaúcho e Wesley Safadão)

Dennis DJ

Cifra: Principal (violão e guitarra)
tom: D
Riff Intro e Primeira parte:

    Bm
E|-------10-------------------10------------------|
B|----12----12----12-------12----12----12---------|
G|-11----------11------11----------11-------------|
D|------------------------------------------------|
A|------------------------------------------------|
E|------------------------------------------------|

    A
E|------9-----------9-----9------9-----10-9-------|
B|---10---10---10------10-----10----10------10-12-|
G|-9---------9-------9------9------9--------------|
D|------------------------------------------------|
A|------------------------------------------------|
E|------------------------------------------------|

Primeira parte:

Bm
Nóis é bom, mas não é bombom
                     A
É papai, mas não é Noel
                                       Bm
É romântico, safado, carinhoso e até fiel
                                     A
É o que você quiser, só não pode abusar
                                             Bm
Que pra ser minha mulher tu tem que se preparar

Nóis faz rir, mas não é palhaço
                          A
Nóis brinca, mas não é criança
Nóis dá nó, mas não dá laço
                       Bm
Nóis não toca, mas tu dança
                                          A
E nesse jogo da vida, não jogamos pra perder
                                          Bm
Antes mesmo da partida, é plano A e plano B
Então vem, mas baixa a bola
                  
                      A
Vem chegando na humildade
                                          Bm
Ou senão tu se enrola e pode chorar mais tarde

Riff Refrão:

E|----------------------------------------|
B|----------------------------------------|
G|-7-6---7-6---7---7-6---7-6---6----------|
D|-----9-----9---------9-----9------------|
A|----------------------------------------|
E|----------------------------------------|

E|----------------------------------------|
B|-------------7-7-7-7--------------------|
G|-9-9-9-9-9-9---------7-7-6-6------------|
D|-----------------------------9----------|
A|----------------------------------------|
E|----------------------------------------|

Refrão 2x:

                                              A
Professor da malandragem, professor da malandragem
                F#                     Bm
Tu estuda na escola onde fizemos faculdade
                                              A
Professor da malandragem, professor da malandragem
                 F#                          Bm
Ronaldinho, Safadão e com o Dennis é sem massagem

(Riff Intro)

Primeira parte (Wesley safadão):

Bm
Nóis é bom, mas não é bombom
                     A
É papai, mas não é Noel
                                       Bm
É romântico, safado, carinhoso e até fiel
                                     A
É o que você quiser, só não pode abusar
                                             Bm
Que pra ser minha mulher tu tem que se preparar

Nóis faz rir, mas não é palhaço
                          A
Nóis brinca, mas não é criança
Nóis dá nó, mas não dá laço
                       Bm
Nóis não toca, mas tu dança
                                          A
E nesse jogo da vida, não jogamos pra perder
                                          Bm
Antes mesmo da partida, é plano A e plano B
Então vem, mas baixa a bola
                  
                      A
Vem chegando na humildade
                                          Bm
Ou senão tu se enrola e pode chorar mais tarde

Refrão 3x:

                                              A
Professor da malandragem, professor da malandragem
                F#                     Bm
Tu estuda na escola onde fizemos faculdade
                                              A
Professor da malandragem, professor da malandragem
                 F#                          Bm
Ronaldinho, Safadão e com o Dennis é sem massagem

Riff Final:

E|-10-10--10-10--10-10--10-10--9--9---9--9---5-5--5-5-|
B|-12-12--12-12--12-12--12-12--10-10--10-10--7-7--7-7-|
G|-11-11--11-11--11-11--11-11--9--9---9--9---7-7--7-7-| (2x)
D|----------------------------------------------------|
A|----------------------------------------------------|
E|----------------------------------------------------|
00:00 / 00:00
Outros vídeos desta música
Repetir
Outros vídeos desta música
Composição de Andrezinho Shock / Dennis DJ / Xandy
Colaboração e revisão:
  • Ricardo Reis
6.050 exibições
    • ½ Tom
    • A
    • Bb
    • B
    • C
    • Db
    • D
    • Eb
    • E
    • F
    • F#
    • G
    • Ab
  • Adicionar à lista

    0 comentários

    Ver todos os comentários

    Conseguiu tocar?

    0 Tocaram 1 Ainda não

    Grave um vídeo tocando Professor da Malandragem (part. Ronaldinho Gaúcho e Wesley Safadão) e nos envie!

    Entre para oCifra Club PRO

    Tenha acesso a benefícios exclusivos no App e no Site

    • Chega de anúncios

    • Prioridade de compra em lançamentos

    • Mais recursos no app do Afinador

    • Atendimento Prioritário

    • Descontos nos produtos Cifra Club

    • Ajude a produzir mais conteúdo

    00:00 / 00:00

    Cifra Club Pro

    Aproveite o Cifra Club com benefícios exclusivos e sem anúncios
    Cifra Club Pro
    Aproveite o Cifra Club com benefícios exclusivos e sem anúncios
    OK