Notificações Amigos pendentes

      Detonautas

      O Dia Que Não Terminou

      49.626 exibições
      Tom: C
      Intro 2x: Am F7M/C G6
      
      Guitarra Ebow (Renato)
      
      
      E|---------------|----------------|----------------|----------------|----------------|----------------|---------------|----|
      B|---------------|----------------|----------------|----------------|----------------|----------------|---------------|----|
      G|------------2/-|9------(9)/14\12|--------9\5--2/7|------------7\2p|0------------2/-|9------(9)/14\12|-------9\5--2/7|(7)-|
      D|---------------|----------------|----------------|----------------|----------------|----------------|---------------|----|
      A|---------------|----------------|----------------|----------------|----------------|----------------|---------------|----|
      E|---------------|----------------|----------------|----------------|----------------|----------------|---------------|----|
      
      
      Primeira Parte:
      
                 Am                F7M/C               G6
        Me sinto tão estranho aqui, que mal posso me mexer irmão
                 Am           F7M/C               G6
        No meio dessa confusão, não consigo encontrar ninguém
             Am      F7M/C     G6
        Onde foi que você se meteu então
                         F7M/C                       Am         G6
        Tô tentando te encontrar, to tentando me entender, as coisas são assim
      
      Guitarra Ebow Primeira Parte:
      
        Am  F7M/C G6        Am  F7M/C G6        Am  F7M/C G6       F7M/C Am   G6           Obs: () Deixar a nota soando.
      
      
      E|----|----|----|----|----|----|----|----|----|----|----|----|----|----|----|----|   Cada compasso está dividido assim |---|
      B|----|----|----|----|----|----|----|----|----|----|----|----|----|----|----|----|        
      E|9---|(9)-|7---|(7)-|9---|(9)-|7---|(7)-|9---|(9)-|7---|7\2/|9---|(9)-|/12-|(12)|
      D|----|----|----|----|----|----|----|----|----|----|----|----|----|----|----|----|
      A|----|----|----|----|----|----|----|----|----|----|----|----|----|----|----|----|
      E|----|----|----|----|----|----|----|----|----|----|----|----|----|----|----|----|
      
      
      Refrão:
        Am                    F7M/C           G
        Meus olhos grandes de medo revelam a solução, a solução
        Am                FC7M/               G
        Meu coração tem segredos que movem a solidão, a solidão
      
      Guitarra Ebow Refrão:
      
        Am       F7M/C    G                      Am       F7M/C    G
      
      
      E|--------|--------|--------|-------------|--------|--------|--------|------------|
      B|--------|--------|--------|-------------|--------|--------|--------|------------|
      G|14------|--------|12------|---(12)\7/12/|14------|--------|12------|--(12)\7/12\|
      D|--------|--------|--------|-------------|--------|--------|--------|------------|
      A|--------|--------|--------|-------------|--------|--------|--------|------------|
      E|--------|--------|--------|-------------|--------|--------|--------|------------|
      
      
      
      Am F7M/C G
      
      
      E|----------------|---------------|----|----|
      B|----------------|---------------|----|----|
      G|9-----(9)/14\12|-------9\5--2/7|(7)-|----|
      D|----------------|---------------|----|----|
      A|----------------|---------------|----|----|
      E|----------------|---------------|----|----|
      
      Repete Primeira Parte com Variação na letra:
      
                Am                F7M/C          G6
      Me sinto tão estranho aqui, diferente de você irmão
            Am                F7M/C              G6
      A sua forma e distorção, não pareço com ninguém sei lá
               Am         F7M/C           G6
      Pois eu sei que nós temos o mesmo destino então
                          F7M/C                     Am        G6
      Tô tentando me encontrar, to tentando me entender, por que tá tudo assim?
      
      Violão Phill:
      
      
      E|----------|       |8--8--7-------|
      B|--10-8-10-|       |-------10--8--|
      G|9---------| 7x >>>|--------------|
      D|----------|       |--------------|
      A|----------|       |--------------|
      E|----------|       |--------------|
      
      
      Refrão:
      
      Am                    F7M/C           G
        Meus olhos grandes de medo revelam a solução, a solução
        Am                F7M/C               G
        Meu coração tem segredos que movem a solidão, a solidão
      
      Am F7M/C G 2x
      
      Guitarra Ebow:
      
      
      E|----------------|----------------|----------------|----------------|----------------|---------------|----|
      B|----------------|----------------|----------------|----------------|----------------|---------------|----|
      G|9------(9)/14\12|--------9\5--2/7|------------7\2p|0------------2/-|9------(9)/14\12|-------9\5--2/7|(7)\|
      D|----------------|----------------|----------------|----------------|----------------|---------------|----|
      A|----------------|----------------|----------------|----------------|----------------|---------------|----|
      E|----------------|----------------|----------------|----------------|----------------|---------------|----|
      
      
      
      Am                       F7M/C
         Quem de nós vai insistir e não?
      
      Violão Phill:
      
      
      E|-8-7-----------------|
      B|-----10-8-8h10-------|
      G|---------------7h9~--|
      D|---------------------|
      A|---------------------|
      E|---------------------|
      
      
      Am                       F7M/C
         Se entregar sem resistir então
      
      Violão Phill:
      
      
         Am                 F7M/C
      E|------------------|----------------------|
      B|--------------15b-|-----15r--15--13p15---|
      G|------------------|----------------------|
      D|------------------|----------------------|
      A|------------------|----------------------|
      E|------------------|----------------------|
      
      
      Am |↑ ↓ ↑    ↑| ↑ ↓ ↑   ↑ |F7M/C|↑ ↓ ↑    ↑ | ↑ ↓ ↑   ↑ |       Palhetada para baixo ↑  Palhetada para cima ↓
         Já não há mais pra onde ir
      
      
      Am |↑ ↓ ↑    ↑| ↑ ↓ ↑   ↑ |F7M/C|↑ ↓ ↑↑↑↑↑|↑↑↑↑↑↑↑ | 12 toques para baixo
         Se entregar a solidão e não
      
      Refrão 2x
      
      Guitarra EBow:
      
        Am       F7M/C    G                 Am    F7M/C    G
      
      
      E|--------|--------|--------|-------------|--------|-------------|
      B|--------|--------|--------|-------------|--------|-------------|
      G|14------|--------|12------|---(12)\7/12/|14------|---(12)\7/12/|
      D|--------|--------|--------|-------------|--------|-------------|
      A|--------|--------|--------|-------------|--------|-------------|
      E|--------|--------|--------|-------------|--------|-------------|
      
        Am       F7M/C    G                      Am       F7M/C    G
      
      
      E|--------|--------|--------|-------------|--------|--------|--------|------------|
      B|--------|--------|--------|-------------|--------|--------|--------|------------|
      G|14------|--------|12------|---(12)\7/12/|14------|--/17---|16------|-------(16)\|
      D|--------|--------|--------|-------------|--------|--------|--------|------------|
      A|--------|--------|--------|-------------|--------|--------|--------|------------|
      E|--------|--------|--------|-------------|--------|--------|--------|------------|
      
      
      
      Intro  2x
      
      Guitarra Ebow:
      
      
      E|----------------|----------------|----------------|----------------|----------------|---------------|----|----|----|
      B|----------------|----------------|----------------|----------------|----------------|---------------|----|----|----|
      G|9------(9)/14\12|--------9\5--2/7|------------7\2p|0------------2/-|9------(9)/14\12|-------9\5--2/7|(7)-|-(7)|/9--|
      D|----------------|----------------|----------------|----------------|----------------|---------------|----|----|----|
      A|----------------|----------------|----------------|----------------|----------------|---------------|----|----|----|
      E|----------------|----------------|----------------|----------------|----------------|---------------|----|----|----|
      

      Comentários 3

      140 .
      • rick.lourenso rick.lourenso: Em 14/01/2014 18:54

        Arrumem essa cifra por favor!?

      • simplythree simplythree: Em 05/01/2011 22:43

        qm foi o idiota q mexeu na cifra? nuss meuw tava certinha a cifra ai mexerão

        • kingmu910 kingmu910: Em 13/08/2012 21:55

          affz concordo qem foi o idio que feiz isso pqp que saco musica tao divina dessa e alguem faiz isso arruma ai pf q coisa

      140 cancelar
      0:00 / 0:00
      Esta versão de cifra não é usada na videoaula. Exiba a cifra correta.
      1 versão de baixo exibições contribuição e correção
      1 versão de bateria exibições contribuição e correção
      2 versões de Guitar Proformatodownloadscontribuição
      play/pausefechar subir/descer velocidade
      6ª corda E5ª corda A4ª corda D3ª corda G2ª corda B1ª corda E
        acordes
        publicidade
        fechar
        ok