Cifra Club

O Retorno de Saturno

Detonautas

Cifra: Principal (violão e guitarra)
exibições 486.427
Tom: E
[Intro]  A  C#m

 A          C#m                    A
Visão do espaço estamos tão distantes
               C#m                          A
Se acelero os passos sigo a voz do meu coração
                 C#m                  E
Ontem eu fui dormir mais tarde um pouco

E                A
E tudo vai indo bem
 A            C#m              A
Venço o cansaço e medo do futuro
          C#m                           A
No teu abraço é que encontro a cura do mal
             C#m                  E
Hoje eu acordei e te quis por perto

          A             F#m
Você não sai do meu pensamento
                  C#m                E
E eu me questiono aqui se isso é normal

[Guitarra 1]

E|----------------------------|
B|--4/6--6/7--7/9--14--7~~----|
G|----------------------------|
D|--2/4--4/5--5/7--12--9~~----|
A|----------------------------|
E|----------------------------|

 B  C#  D      E                           A
Nãooo    precisa ser de novo assim tudo igual

( A  F#m  C#m )

A          C#m                  A
Entre o retorno de Saturno e o seu
              C#m                        A
Busco uma resposta que acalme o meu coração
               C#m                 E
Do amanhã não sei o que posso esperar

          A             F#m
Você não sai do meu pensamento
             C#m                     E
E eu me questiono aqui se isso é normal
          A             F#m
Você não sai do meu pensamento
            C#m                 E
E eu me pergunto aqui se o Natural
 B C# D    E                          A
Vaaai   dizer que o amor chegou no final      

( A  C#m  F#m )

 B  C# D      E                           A
Nãooo   precisa ser de novo assim tudo igual    

( A  F#m  C#m )

 A      F#m                           C#m
Não precisa ser de novo assim tudo igual

[Riff]

E|---------------------------|
B|---------------------------|
G|--6h7-6~~------------------|
D|---------------------------|
A|---------------------------|
E|---------------------------|

[Riff 2]

E|---------------------------|
B|---------------------------|
G|--6h7-6~~--6h7-6~~---------|
D|--------------------6h7-6~~|
A|---------------------------|
E|---------------------------|
Acordes para:

    0 comentários

      mostrar mais comentários

      Conseguiu tocar?

      66tocaram1ainda não

      Grave um vídeo tocando O Retorno de Saturno e mande pra gente!

      00:00 / 00:00
      outros vídeos desta música
      repetirqualidadeAutomático
      Outro vídeos desta música
        00:00 / 00:00
        OK