Cifra Club

Aprenda

O Retorno de Saturno

Detonautas

Cifra: Versão 4 (violão e guitarra)
tom: E
(Na versão do Acústico MTV o violão que faz a intro, os riff e solos, utiliza um Dedal que é apropriado para Slides, assim, essa cifra está adaptada para um violão sem Dedal.

Parte 1)


(Intro)(Violão 2)

E|---------------------------------------------------------------------------------|
B|-10-10-10-10--12-12-12-12--14-14-14-14--14/17-17-17-17--9-9h10-9h10p9p10p9-------|
G|---------------------------------------------------------------------------------|
D|----------------------------------------------------------------------------------|

Parte 2

E|---------------------------------------------------------------------------------|
B|-10-10-10-10--12-12-12-12--14-14-14-14--14/17-17-17-17----9-9h10-9-7-5h7p5h7p5---|
G|---------------------------------------------------------------------------------|
D|----------------------------------------------------------------------------------|

(riff 1)(Violão 2)

E|-------------------4h5p4-----------------------|
B|--1/9~--5/75----5-------5---5/75-------------|
G|---------------4-----------4-------------------|

(riff 2)(violão 2)

G|-------------------------------|
D|-7/16~--1412-12--119-9------|
A|------------------------------|

(riff 3)(violão 2)

E|----------------------------------------------------------------------------|
B|----5----5---------5----5-------------5-----5---------5----5----------------| (3x)
G|-----6----6---6-----6----6---6---------6-----6---6-----6----6---6-----------|
D|--7----7----7----7----7----7--------6-----6----6----6----6----6-------------|

(riff 4)

E|--------------------------------------------|
B|--7/9--109-9--109-9--109-9--109-9-------|

(riff 5)

E|---------------------------------------------------------------------|
B|-----------------------9~--9-12--------------------------------------|
G|--6-----9-8-9-11--9-11----------11b13r11-9----9--11b13r11-9----9~----|
D|----6/9------------------------------------11---------------11-------|

(riff 6)

E|---------12-----11-----9------7-----5-----4b5-7-4--------------------|
B|--9---9-----9------9------9-----9-----9-----------5-7b9r7-5----------|
G|----9---------9------9------9-----9-----9----------------------------|
D|---------------------------------------------------------------------|

(solo final)

Parte 1

E|--------------------------------------------------------------------------------------------------------------------------------------|
B|-10-10-10-10--12-12-12-12--14-14-14-14--17-17-17-17--14-14-14-14--12-12-12-12--10-10-10-10-9h10-9h10-9--5/7-5/7-5--2-0-2/5-5--2-0-2~--|
G|--------------------------------------------------------------------------------------------------------------------------------------|

Parte 2

E|--------------------------------------------------------------------------------------------------------------------------------------|
B|-10-10-10-10--12-12-12-12--14-14-14-14--17-17-17-17--19-19-19-19--17-17-17-17--14-14-14-14--12H14-12H14-14~---------------------------|
G|--------------------------------------------------------------------------------------------------------------------------------------|

(intro) A C#m (2x)

A            C#m                     A
Visão do espaço estamos tão distantes
               C#m                           A
se acelero os passos sigo a voz do meu coração
                 C#m                  E
Ontem eu fui dormir mais tarde um pouco (riff 1)

 E                  A
E tudo vai indo bem...
A             C#m               A
Venço o cansaço e medo do futuro.
           C#m                            A
No teu abraço é que encontro a cura do mal
             C#m                   E
Hoje eu acordei e te quis por perto  (riff 1)

           A             F#m
Você não sai do meu pensamento
                   C#m               E
e eu me questiono aqui se isso é normal (riff 2)


B            E                             A
Nãooo... precisa ser de novo assim tudo igual

(A F#m C#m)

(riff 3)

A          C#m                    A
Entre o retorno de Saturno e o seu
              C#m                          A
busco uma resposta que acalme o meu coração
              C#m                  E
Do amanhã não sei o que posso esperar (riff 4)

           A              F#m
Você não sai do meu pensamento
             C#m                      E
e eu me questiono aqui se isso é normal
           A              F#m
Você não sai do meu pensamento
            C#m                   E
e eu me pergunto aqui se o Natural  (riff 2)
B           E                          A
vaaai... dizer que o amor chegou no final       (A F#m C#m)
B           E                             A
Nãooo... precisa ser de novo assim tudo igual    (A F#m C#m )

A       F#m                            C#m (riff 5)
Não precisa ser de novo assim tudo igual

A       F#m                            C#m (riff 6)
Não precisa ser de novo assim tudo igual

(Solo final) A F#m C#m )(3x) C#m
Composição de DJ Cleston / Fábio Brasil / Renato Rocha / Tico Santa Cruz
Colaboração e revisão:
  • Higor Martins
10.130 exibições
    • ½ Tom
    • A
    • Bb
    • B
    • C
    • Db
    • D
    • Eb
    • E
    • F
    • F#
    • G
    • Ab
  • Adicionar à lista

    0 comentários

    Ver todos os comentários

    Conseguiu tocar?

    0 Tocaram 0 Ainda não

    Grave um vídeo tocando O Retorno de Saturno e nos envie!

    00:00 / 00:00
    Outros vídeos desta música
    Repetir Qualidade Automático
    Outros vídeos desta música
    00:00 / 00:00
    Automático

    Cifra Club Pro

    Aproveite o Cifra Club com benefícios exclusivos e sem anúncios
    Cifra Club Pro
    Aproveite o Cifra Club com benefícios exclusivos e sem anúncios
    OK