Cifra Club

Aprenda

O Retorno de Saturno

Detonautas

Cifra: Versão 3 (violão e guitarra)
tom: A
Intro:
E|----------------------------------------------------------------------------|
B|---------10-10-10/12-12-12/14--14-14/16--16-16/9-9--10--9----7----5---------|
G|----------------------------------------------------------------------------|

E|----------------------------------------------------------------------------|
B|---10-10-10/12-12--12/14--14-14/16--16-16/9--9--10--9---7---5/7/5--5/7/5~~~~|


A            C#m                     A
Visão do espaço estamos tão distantes
               C#m                           A
se acelero os passos sigo a voz do meu coração
                 C#m                  E
Ontem eu fui dormir mais tarde um pouco

Segundo solo:
E|---------------------------------------------|
B|-------------------5--6...5------------------|
G|---------7/5----5-----------5----7/5---------|
D|-------------------------------5-------------|


E                  A
E tudo vai indo bem...
A             C#m               A
Venço o cansaço e medo do futuro.
           C#m                            A
No teu abraço é que encontro a cura do mal
             C#m                   E
Hoje eu acordei e te quis por perto

Terceiro solo:
E|-------------------------------------------------------------------|
B|---------------------------------10-10/11/10-----------------------|
G|-------14/10-10---------------------------------10------12/10~~~~~~|
D|------14/-------------------------------------------10-------------|

           A             F#m
E você não sai do meu pensamento
                   C#m               E
e eu me questiono aqui se isso é normal

Quarto solo:
E|-------------------------------------------------|
B|----------------9/7/5~~~~~~~~~~~~~~~~~~~~--------|
G|----------------9/7/5~~~~~~~~~~~~~~~~~~~~--------|
D|----------------9/7~~~~~~~~~~~~~~~~~~~~----------|
A|-------------------------------------------------|
E|--14/--------------------------------------------|


B C# D      E                             A
Nãooo... precisa ser de novo assim tudo igual

( A  F#m  C#m )

A          C#m                    A
Entre o retorno de Saturno e o seu
              C#m                          A
busco uma resposta que acalme o meu coração
              C#m                  E
Do amanhã não sei o que posso esperar

Quinto solo:
E|--------------------------------------|
B|---10---11/10---(repete 6 vezes)------|


           A              F#m
E você não sai do meu pensamento
             C#m                      E
e eu me questiono aqui se isso é normal
           A              F#m
Você não sai do meu pensamento
            C#m                   E
e eu me pergunto aqui se o Natural

Sexto solo:
E|---------------------|
B|---------------------|
G|-----10/9---9/5~~~~~~|
D|-----10/-------------|

B C# D      E                          A
vaaai... dizer que o amor chegou no final       (A F#m C#m)
B C# D      E                             A
Nãooo... precisa ser de novo assim tudo igual    (A F#m C#m)

A       F#m                            C#m
Não precisa ser de novo assim tudo igual  (3x)

Solo:
E|----------------------------------------------------------------------------------|
B|-10-10-10/12-12-12/14--14-14/16--16-16/14--14-14/12--12-12/10--10-10/9/10/9/10/9--|
G|----------------------------------------------------------------------------------|

B|----------------------------5-5-------------------|
G|---9/11-11/9------3/5/3/5---------3/5/3/5~~~~~~~~~|
D|--------------------------------------------------|

E|---------------------------------------------------------------------------------------|
B|-10-10-10/12-12-12/14--14-14/16--16-16/17---17---17/16---16-16/14---14---14/12/14/12/14|
G|---------------------------------------------------------------------------------------|




                                                                                                
                                          

 
                                                                                                Enviada por Moabe Cavalcante.
Composição de DJ Cleston / Fábio Brasil / Renato Rocha / Tico Santa Cruz
Colaboração e revisão:
  • Moabe Santos
33.717 exibições
    • ½ Tom
    • A
    • Bb
    • B
    • C
    • Db
    • D
    • Eb
    • E
    • F
    • F#
    • G
    • Ab
  • Adicionar à lista

    0 comentários

    Ver todos os comentários

    Conseguiu tocar?

    4 Tocaram 0 Ainda não

    Grave um vídeo tocando O Retorno de Saturno e nos envie!

    00:00 / 00:00
    Outros vídeos desta música
    Repetir Qualidade Automático
    Outros vídeos desta música
    00:00 / 00:00
    Automático

    Cifra Club Pro

    Aproveite o Cifra Club com benefícios exclusivos e sem anúncios
    Cifra Club Pro
    Aproveite o Cifra Club com benefícios exclusivos e sem anúncios
    OK