Cifra Club

Aprenda

Do Copo Eu Vim (part. Marília Mendonça)

Diego e Victor Hugo

Cifra: Principal (violão e guitarra)
tom: C
[Intro] C  G  Am7  F

E|------------------------------------------|
B|---------6-5-5\3--------------------------|
G|-----5-7---------5---5/7------------------|
D|-5/7---------------5----------------------|
A|------------------------------------------|
E|------------------------------------------|

E|------------------------------------------|
B|---------6-5-5\3--------------------------|
G|-----5-7---------5-------5----------------|
D|-5/7---------------5-5/7---7-5------------|
A|------------------------------------------|
E|------------------------------------------|

[Primeira Parte]

      C
Você sabe a diferença entre o clima e o tempo
  G
Clima é o que nós dois não temos
 Am7                    F
Tempo é o que nós dois perdemos

[Pré-Refrão]

               C
Onde é que eu tava com a cabeça
              G
Quando abandonei as garrafas
                      Am7
Por você que por mim não se importa
               G/B         F            G
Mas um bom solteiro sempre à balada torna

[Refrão]

                  C
É que do copo eu vim
               G
Pro copo voltarei
                    Am7
Tava com um pé no amor 
                F
Bebi e escorreguei 

                  C
É que do copo eu vim 
               G 
Pro copo voltarei
               Am7 
Em terra de balada
                    F
Quem tá solteiro é rei

                  C
É que do copo eu vim
               G
Pro copo voltarei
                    Am7
Tava com um pé no amor 
                F
Bebi e escorreguei 

                  C
É que do copo eu vim 
               G 
Pro copo voltarei
               Am7 
Em terra de balada
                    F
Quem tá solteiro é rei

[Solo] C  G  Am7  F

E|------------------------------------------|
B|---------6-5-5\3--------------------------|
G|-----5-7---------5---5/7------------------|
D|-5/7---------------5----------------------|
A|------------------------------------------|
E|------------------------------------------|

E|------------------------------------------|
B|---------6-5-5\3---------------5-6-6/8----|
G|-----5-7---------5-------5----------------|
D|-5/7---------------5-5/7---7-7------------|
A|------------------------------------------|
E|------------------------------------------|

[Pré-Refrão]

               C
Onde é que eu tava com a cabeça
              G
Quando abandonei as garrafas
                      Am7
Por você que por mim não se importa
               G/B         F            G
Mas um bom solteiro sempre à balada torna

[Refrão]

                  C
É que do copo eu vim
               G
Pro copo voltarei
                    Am7
Tava com um pé no amor 
                F
Bebi e escorreguei 

                  C
É que do copo eu vim 
               G 
Pro copo voltarei
               Am7 
Em terra de balada
                    F
Quem tá solteiro é rei

                  C
É que do copo eu vim
               G
Pro copo voltarei
                    Am7
Tava com um pé no amor 
                F
Bebi e escorreguei 

                  C
É que do copo eu vim 
               G 
Pro copo voltarei
               Am7 
Em terra de balada
                    F
Quem tá solteiro é rei

[Final] C  G  Am7  F  C
        
E|------------------------------------------|
B|---------6-5-5\3--------------------------|
G|-----5-7---------5---5/7------------------|
D|-5/7---------------5----------------------|
A|------------------------------------------|
E|------------------------------------------|

E|------------------------------------------|
B|---------6-5-5\3------------5-6-8/10-8----|
G|-----5-7---------5--------7---------------|
D|-5/7---------------5-5/7------------------|
A|------------------------------------------|
E|------------------------------------------|
Composição de Douglas Mello / Flávinho Tinto / Junior Gomes / Nando Marx / Philipe Pancadinha / Victor Hugo
Colaboração e revisão:
  • Thiago Almeida
52.530 exibições
    • ½ Tom
    • A
    • Bb
    • B
    • C
    • Db
    • D
    • Eb
    • E
    • F
    • F#
    • G
    • Ab
  • Adicionar à lista

    0 comentários

    Ver todos os comentários

    Conseguiu tocar?

    6 Tocaram 5 Ainda não

    Grave um vídeo tocando Do Copo Eu Vim (part. Marília Mendonça) e nos envie!

    00:00 / 00:00
    Outros vídeos desta música
    Repetir Qualidade Automático
    Outros vídeos desta música
    00:00 / 00:00
    Automático

    Cifra Club Pro

    Aproveite o Cifra Club com benefícios exclusivos e sem anúncios
    Cifra Club Pro
    Aproveite o Cifra Club com benefícios exclusivos e sem anúncios
    OK