Cifra Club

Remédio

Diego e Victor Hugo

Cifra: Principal (violão e guitarra)
Selo Cifra Club: esta cifra foi revisada para atender aos critérios oficiais da nossa Equipe de Qualidade.
tom: D
[Intro] D


D                           F#
Sorria, aproveita aí o quanto quiser
                            Bm
Sei que ela faz a gente se sentir bem
                          G   
Eu já tive aí no seu lugar também

            D
Pede uma cerveja
                     F# 
E orgulhosamente apresente

Ela aos seus amigos
            Bm
Não economize elogios
                  G
E principalmente, deixa ela falar

Deixa ela falar

D
Sei que são palavras permanentes
                   F#
Pra pessoas temporárias
              Bm
Ela vai te machucar, eu sei
                       G
Porque fui eu que ensinei

D
Além de tudo se eu piscar
                F#
Cê vai ficar solteiro
                                 Bm
Ela vai disfarçar e levantar da mesa

E reclamar do som
                   G
Vai procurar um espelho e retocar o batom

D
Além de tudo se eu piscar
                F#
Cê vai ficar solteiro
                                 Bm
Ela vai reclamar de uma dor de cabeça

Que a cerveja deu
          G                         D
Mal sabe você, que o remédio sou eu

E|----------------------------|
B|----------------------------|
G|-------9/11-9-11-9-11-9-11--|
D|--/12-----------------------|
A|----------------------------|
E|----------------------------|

E|------------------------|
B|------------------------|
G|--11-11-11-11-11-11-11--|
D|------------------------|
A|------------------------|
E|------------------------|

E|-----------------|
B|-----------------|
G|--9-6-6-6-6-7-9--|
D|-----------------|
A|-----------------|
E|-----------------|

E|-------------------------------------|
B|-------------------------------------|
G|--7-9-7-9-7---7/12-11-11-11-11-9-11--| (2x)
D|-------------------------------------|
A|-------------------------------------|
E|-------------------------------------|

E|--------------------------|
B|--10/12-10----------------|
G|------------10/12-11~~~~--|
D|--------------------------|
A|--------------------------|
E|--------------------------|


[Final] G
Outros vídeos desta música
13.698 exibições
    • ½ Tom
    • A
    • Bb
    • B
    • C
    • Db
    • D
    • Eb
    • E
    • F
    • F#
    • G
    • Ab
  • Adicionar à lista

Afinação da cifra

Afinador online

    0 comentários

    Ver todos os comentários

    Entre para o Cifra Club PRO

    Tenha acesso a benefícios exclusivos no App e no Site

    • Chega de anúncios

    • Mais recursos no app do Afinador

    • Atendimento Prioritário

    • Aumente seu limite de lista

    • Ajude a produzir mais conteúdo

    Cifra Club Pro

    Aproveite o Cifra Club com benefícios exclusivos e sem anúncios
    Cifra Club Pro
    Aproveite o Cifra Club com benefícios exclusivos e sem anúncios
    OK