Cifra Club

Aprenda

Efraim

Eli Soares

Cifra: Versao-3 (violão e guitarra)
Tom: G
Intro: G C9 G D9/F# G9
 
  
  G9                                    C9
  Tento esquecer, aquelas lembranças antigas
  G                                     C9
  Zombaram de mim, lançaram palavras malditas
        Bm7 D9/F# G4        G/B C9
  Mas eu re__sis__ti, mesmo ferido eu estou aqui
        Bm7 D9/F# G4           G/B  C9
  Não vão me ca__lar, estou no deserto, e vou te adorar.

      Bm7         D9/F#           G4
  e|--------------------0--------------------------------|
  B|-------3----------3------------------0h1p0-----------|
  G|-----2----------2------------------0-----------------|
  D|---4-----------------------------0-------------------|   
  A|-2---------------------------------------------------|
  E|------------2-----------------3----------------------|

      G4   G/B C9
  e|--------------------|
  B|-0-1---3---3--------|
  G|-0-0---0---0--------|
  D|-0-0---0---0--------|  
  A|-------1---2--------|
  E|-3-3----------------|

  G                 G9                  C9
  Tento esquecer, aquelas lembranças antigas
  G                          G/B        C9
  Zombaram de mim, lançaram palavras malditas
        Bm7 D9/F# G4        G/B C9
  Mas eu re__sis__ti, mesmo ferido eu estou aqui
        Bm7 D9/F# G4           G/B  C9        D9
  Não vão me ca__lar, estou no deserto, e vou te adorar.

  G/B      C9 D9/F# G
  Me chamo E__fra__im
  G4       G/B C9 D#º G/B
  Deus se lembrou de mim

  G/B     C9 D9/F# G
  Me chamo E__fra__im
  G4       G/B C9      D9/F#       G
  O tempo de Deus hoje chegou pra mim

    G4    G/B  C9  D9/F#  G
E|-----------------------3--------|
B|-0-1----3---3-----3----3--------|
G|-0-0----0---0-----2----0--------|
D|-0-0----0---0-----0-------------|   
A|--------------------------------|
E|-3-3----1---2-----1----3--------|
Composição de Dessa Canção É O Pastor Josué Júnior Isidoro / O
Colaboração e revisão:
  • Matheus Silva
823 exibições
    • ½ Tom
    • A
    • Bb
    • B
    • C
    • Db
    • D
    • Eb
    • E
    • F
    • F#
    • G
    • Ab
  • Adicionar à lista

    0 comentários

    Mostrar mais comentários
    00:00 / 00:00
    outros vídeos desta música
    repetir qualidade Automático
    Outros vídeos desta música
    00:00 / 00:00
    Automático

    Cifra Club Pro

    Aproveite o Cifra Club com benefícios exclusivos e sem anúncios
    7 dias grátis
    Cifra Club Pro
    Aproveite o Cifra Club com benefícios exclusivos e sem anúncios
    7 dias grátis
    OK