Cifra Club

Eu Vejo a Glória

Eli Soares

Cifra: Principal (violão e guitarra)
Selo Cifra Club: esta cifra foi revisada para atender aos critérios oficiais da nossa Equipe de Qualidade.
tom: Em
[Tab - Riif 1]

E|----------------------------------------------------------------------------------|
B|----------------------------------------------------------------------------------|
G|----------------------------------------------------------------------------------|
D|----------------------------------------------------------------------------------|
A|---2---x---2-2--x---7---5-----------------2---x---2---2--x--5---2---10------------|
E|---0---x---0-0--x---------7-6-5---3-------0---x---0---0--x--------------9---------|

[Tab - Riff 2]

E|---------------------------------------------------------|
B|---------------------------------------------------------|
G|---------------------------------------------------------|
D|---------------------------------------------------------|
A|---5h7-7-7-7-7-7-------5h7---7-7-7-7-7-------------------|
E|---0-------------------0---------------------------------|

Riff 1 Em
Eu vejo a glória do Senhor hoje aqui
A sua mão e o seu poder sobre mim
Os céus abertos hoje eu vou contemplar

    Am7          B/G      B7(13+)
O amor descer neste lugar

Riff Em
Eu quero ver agora o teu poder
A tua glória inundando meu ser
Vou levantar as mãos vou receber
            Am7        B/G
Vou louvando o teu nome
           B7(13+)
Porque eu sinto o Senhor me tocar
00:00 / 00:00
Outros vídeos desta música
Repetir
Outros vídeos desta música
35.506 exibições
    • ½ Tom
    • Am
    • Bbm
    • Bm
    • Cm
    • C#m
    • Dm
    • Ebm
    • Em
    • Fm
    • F#m
    • Gm
    • G#m
  • Adicionar à lista

Afinação da cifra

Afinador online

    0 comentários

    Ver todos os comentários

    Entre para o Cifra Club PRO

    Tenha acesso a benefícios exclusivos no App e no Site

    • Chega de anúncios

    • Mais recursos no app do Afinador

    • Atendimento Prioritário

    • Aumente seu limite de lista

    • Ajude a produzir mais conteúdo

    00:00 / 00:00

    Cifra Club Pro

    Aproveite o Cifra Club com benefícios exclusivos e sem anúncios
    Cifra Club Pro
    Aproveite o Cifra Club com benefícios exclusivos e sem anúncios
    OK