Cifra Club

Eu Que Não Amo Você

Engenheiros do Hawaii

Cifra: Versão 4 (violão e guitarra)
Tom: G
Em
Eu que não fumo queria um cigarro
C
Eu que não amo você
 G            
Envelheci dez anos ou mais
          D     D#º
Neste ultimo mês
Em
Eu que não bebo pedi um conhaque
C
Pra enfrentar o inverno
G                                                D
Que entra pela porta que você deixou aberta ao sair

Am      
Senti saudade
G
Vontade de voltar
Am
Fazer a coisa certa
G
Aqui é o meu lugar
Em
Mas sabe como é 
A79
Dificil encontrar
Am
A palavra certa 
C                  G
A hora certa de voltar
Am
A porta aberta
C                  D
A hora certa de chegar

Em
Eu que não fumo queria um cigarro
C
Eu que não amo você
G
Envelheci dez anos ou mais
               D     D#º
Neste ultimos mês
Em
Eu que não bebo pedi um conhaque
C
Pra enfrentar o inverno
G                                              D    
Que entra pela porta que você deixou aberta ao sair

Am
O certo é que eu dancei
               G
Sem querer dançar
Am
E agora ja nem sei
                G
Qual é o meu lugar
Em
Dia e noite sem parar
                     A79
Eu procurei sem encontrar
Am            C
A palavra certa
                    G
A hora certa de voltar
Am            C
A porta aberta
                   D
A hora certa de chegar

Em
Eu que não fumo queria um cigarro
C
Eu que não amo você
G                      
Envelheci dez anos ou mais
            D    D#º
Neste último mês
Em
Eu que não bebo pedi um conhaque
C
Pra enfrentar o inverno
G                                                 D  D#º
Que entra pela porta que você deixou aberta ao sair


Solo ---Piano Base (Em / C / G / D / D#º / Em / C / G / D / D#º)



e|-7-7--9---7--------|-7-7--9---7--------|---------------------------/
B|-8-8--10--8--------|-8-8--10--8--------|---------------------------/
G|-9-9--11--9---9~~--|-9-9--11--9---9~~--|--4---5---7---5---4---4--4-/
D|-------------------|-------------------|--5---7---9---7---5---5--4-/
A|-------------------|-------------------|---------------------------/
E|-------------------|-------------------|---------------------------/

e|------------------------------|---------------------------------------------/
B|-0----------------------------|---------------3--0--5--3--0----------3~--8--/
G|-0-----------------4----------|----------2-4-------------------2--0---------/
D|-2-----------2--4~~----4--2---|-0--2--4-------------------------------------/
A|-2--0--2--4~------------~~~~--|---------------------------------------------/
E|------------------------------|---------------------------------------------/

e|-------------------------------------|--10---8---7--------------------/
B|-----8--7------------10--7-----------|---------------10---8-----------/
G|-----------9--7-------------9---7~~--|------------------------8---9---/
D|-------------------------------------|--------------------------------/
a|-------------------------------------|--------------------------------/
E|-------------------------------------|--------------------------------/



Em
Eu que não fumo queria um cigarro
C
Eu que não amo você
G                      
Envelheci dez anos ou mais
            D    D#º
Neste ultimos mês
Em
Eu que não bebo pedi um conhaque
C
Pra enfrentar o inverno
G                                                 D  D#º ...    Em (apenas 1 toque em Em)
Que entra pela porta que você deixou aberta ao sair
exibições 140.927
Acordes para:
    Composição: Humberto Gessinger Colaboração e revisão:
    • Rangel Lange
    • Andre Moraes
    • Eduardo Filho

    0 comentários

    mostrar mais comentários

    Conseguiu tocar?

    6 tocaram 1 ainda não

    Grave um vídeo tocando Eu Que Não Amo Você e mande pra gente!

    00:00 / 00:00
    outros vídeos desta música
    repetir qualidade Automático
    Outros vídeos desta música
    00:00 / 00:00
    Automático
    OK