Cifra Club

Aprenda

Eu Que Não Amo Você

Engenheiros do Hawaii

Cifra: Principal (violão e guitarra)
tom: Em
[Refrão]

Em
   Eu que não fumo queria um cigarro
C
  Eu que não amo você
        G                        D          D#º
Envelheci dez anos ou mais nesse último mês

Em                                 
Eu que não bebo pedi um conhaque 
C
  Pra enfrentar o inverno
    G                                            
Que entra pela porta 
                            D
Que você deixou aberta ao sair

[Primeira Parte]

Am               G
   Senti saudade,  vontade de voltar
Am                    G
   Fazer a coisa certa,  aqui é o meu lugar
Em                            A
   Mas sabe como é difícil encontrar
Am            C                      G
   A palavra certa, a hora certa de voltar
Am           C                         D
   A porta aberta, a hora certa de chegar

[Refrão]

Em
   Eu que não fumo queria um cigarro
C
  Eu que não amo você
        G                        D         D#º
Envelheci dez anos ou mais nesse último mês
Em                                 
   Eu que não bebo pedi um conhaque 
C
  Pra enfrentar o inverno
    G                                            
Que entra pela porta 
                            D
Que você deixou aberta ao sair

[Segunda Parte]

Am                         G
   O certo é que eu dancei   sem querer dançar
Am                    G                   D/F#
   E agora já nem sei   qual é o meu lugar
Em                                           A
   Dia e noite sem parar, eu procurei sem encontrar
Am            C                      G
   A palavra certa, a hora certa de voltar
Am           C                         D
   A porta aberta, a hora certa de chegar

[Refrão]

Em
   Eu que não fumo queria um cigarro
C
  Eu que não amo você
        G                        D         D#º
Envelheci dez anos ou mais nesse último mês

Em                                 
   Eu que não bebo pedi um conhaque 
C
  Pra enfrentar o inverno
    G                                            
Que entra pela porta 
                            D  D#°
Que você deixou aberta ao sair

[Solo] Em  C  G  D  D#°
       Em  C  G  D  D#°

E|-7---------------------7------------------|
B|-8-10-8----------------8-10-8-------------|
G|-9------9-7-9-9/11-9---9------9-7-9-9/11-9|
D|------------------------------------------|
A|-7---------------------10-----------------|
E|------------------------------------------|

E|-7----------------------------------------|
B|-8-10-8-----------------------------------|
G|-9-------4-5-7-5-4------------------------|
D|---------5-7-9-7-5------------------------|
A|------------------------------------------|
E|-8----------------------------------------|

E|-5-------5--------5-------5---------------|
B|---7---7---7---7----7---7-----------------|
G|-----7-------7--------8-------------------|
D|------------------------------------------|
A|------------------------------------------|
E|------------------------------------------|

E|-7----------------------------------------|
B|-8-10-8-----------------------------------|
G|-9------9------------------2b4r2p0--------|
D|-----------------------2h5---------2------|
A|-7---------------2h3h5--------------------|
E|-----------0h3h5--------------------------|

E|-7----------------------------------------|
B|-8--10-8------------0-3--3-5p3------------|
G|-9-------9------0h2------------4-2--------|
D|------------0h2--------------------0------|
A|-10---------------------------------------|
E|------------------------------------------|

E|------------5-------5--------5-------5----|
B|---0h3-5/8----7---7---7---7----7---7------|
G|----------------7-------7--------8--------|
D|-0----------------------------------------|
A|------------------------------------------|
E|------------------------------------------|

[Refrão]

Em
   Eu que não fumo queria um cigarro
C
  Eu que não amo você
        G                        D         D#º
Envelheci dez anos ou mais nesse último mês

Em                                 
   Eu que não bebo pedi um conhaque 
C
  Pra enfrentar o inverno
    G                                            
Que entra pela porta 
                            D  D#°  Em
Que você deixou aberta ao sair
Composição de Humberto Gessinger
1.196.841 exibições
    • ½ Tom
    • Am
    • Bbm
    • Bm
    • Cm
    • C#m
    • Dm
    • Ebm
    • Em
    • Fm
    • F#m
    • Gm
    • G#m
  • Adicionar à lista

    0 comentários

    Ver todos os comentários
    00:00 / 00:00
    Outros vídeos desta música
    Repetir Qualidade Automático
    Outros vídeos desta música
    00:00 / 00:00
    Automático

    Cifra Club Pro

    Aproveite o Cifra Club com benefícios exclusivos e sem anúncios
    Cifra Club Pro
    Aproveite o Cifra Club com benefícios exclusivos e sem anúncios
    OK