Cifra Club

On The Roof Again

Eve 6

Cifra: Principal (violão e guitarra)
tom: A
Album: Horrorscope
Tabbed by: Alex Stroshane (E*)

Oops...I forgot they won't let you have more than one
from my first post. Here is just the correct way:

Tune down a full step (D A F C G D).

if playing a Strat-style guitar.

I will use the verse lyrics as cues for variations during
the verse, since I'm too lazy to count the bars and all.
You will pick it up quickly if you have the CD handy, it's
really pretty easy.

x = strum muted string
\ = slide up
P = palm mute
(7)=7th fret harmonic

Intro/Verse
-----------
      *-----This is the basic **
G-3\-|-8-8-----------9------|-9-9-----------9------|
D-4\-|-9-9-----------9------|-9-9-----------9------|
A-4\-|-9-9-(7)(7)(7)-7------|-7-7-(7)(7)(7)-7------|
E-2\-|-7-7------------(7)(7)|-7-7------------(7)(7)|

Play the above until you get to the line:
"He was the prodigal son..."
There you play this variation:

G-8-8-----------9------|-9-9-----------9---9-|
D-9-9-----------9------|-9-9-----------9---9-|
A-9-9-(7)(7)(7)-7------|-7-7-----------7---7-|
E-7-7------------(7)(7)|---------------------|
            He was the....had brought him home.

Now back to the standard riff, until "cute Guatemalan":

G-8-8-----------9------|-9-9-----------9-x-9-|
D-9-9-----------9------|-9-9-----------9-x-9-|
A-9-9-(7)(7)(7)-7------|-7-7-(7)(7)(7)-7-x-9-|
E-7-7------------(7)(7)|-7-7-------------x---|
     ...with this cute Guatemalan.

Back to main riff until "cool and collected":

                        P P   P P P   P
G-8-8-----------9-9-9-|-----9-------9-9-|
D-9-9-----------9-9-9-|-----9-------9-9-|
A-9-9-(7)(7)(7)-7-7-7-|-7-7-7-7-7-7-7-7-|
E-7-7-----------------|-0-0---0-0-0---0-|

  P P   P
G-----9---7-7-|
D-----9---7-7-|
A-7-7-7-7-5-5-|
E-0-0---0-----|

Chorus
------

G-8--8-x-x-3--3-x-x-5--5-x-x-2--2-x-x-|
D-9--9-x-x-4--4-x-x-6--6-x-x-2--2-x-x-|
A-9--9-x-x-4--4-x-x-6--6-x-x-1--1-x-x-|
E-7--7-x-x-2--2-x-x-4--4-x-x-0--0-x-x-|  X3

G-8-------3-------1----|
D-9-------4-------2----|
A-9-------4-------2----|
E-7-------2-------0----|

Verse 2
-------
      **------Repeat this part twice------**
B----|-------15--15--15-|-------15--15--15--|
G-3\-|-8-8---14--14--14-|-9-9---14--14--14--|
D-4\-|-9-9---12--12--12-|-9-9---12--12--12--|
A-4\-|-9-9--------------|-7-7---------------|
E-2\-|-7-7--------------|-7-7---------------|

Now back to the standard riff, until "Riding high...":

G-8-8-----------9------|-9-9-----------9-x-9-|
D-9-9-----------9------|-9-9-----------9-x-9-|
A-9-9-(7)(7)(7)-7------|-7-7-(7)(7)(7)-7-x-9-|
E-7-7------------(7)(7)|-7-7-------------x---|
                    ...had only gotten him down.

Back to main riff until "together til...":

                        P P   P P P   P
G-8-8-----------9-9-9-|-----9-------9-9-|
D-9-9-----------9-9-9-|-----9-------9-9-|
A-9-9-(7)(7)(7)-7-7-7-|-7-7-7-7-7-7-7-7-|
E-7-7-----------------|-0-0---0-0-0---0-|

  P P   P
G-----9---7-7-|
D-----9---7-7-|
A-7-7-7-7-5-5-|
E-0-0---0-----|

Chorus
------

Same as before.

Bridge
------
Just play this one bit over and over, listen to the CD
for the timing.

B--12---12---|
G--11---11---|
D---9----9---|
A------------|
E------------|

Then this:

G-9-9---9-9---9-9---9-9-|
D-9-9---9-9---9-9---9-9-|
A-7-7---7-7---7-7---7-7-|
E-----------------------|

Chorus/Outro
------------

G-8--8-x-x-3--3-x-x-5--5-x-x-2--2-x-x-|
D-9--9-x-x-4--4-x-x-6--6-x-x-2--2-x-x-|
A-9--9-x-x-4--4-x-x-6--6-x-x-1--1-x-x-|
E-7--7-x-x-2--2-x-x-4--4-x-x-0--0-x-x-|  X4

G-8--8-x-x-3--3-x-x-8--8-x-x-1--1-x-x-|
D-9--9-x-x-4--4-x-x-9--9-x-x-2--2-x-x-|
A-9--9-x-x-4--4-x-x-9--9-x-x-2--2-x-x-|
E-7--7-x-x-2--2-x-x-7--7-x-x-0--0-x-x-|  X3

G-8-------3-------1----|
D-9-------4-------2----|
A-9-------4-------2----|
E-7-------2-------0----|  X2

Hope you enjoy the tab! Comments/questions: E*=============================


#This file is the author's own work and represents their interpretation of the#
#song. You may only use this file for private study, scholarship, or research.#


Album: Horrorscope
Transcribed by: Matt Foster
Email: *

Email me comments/corrections and if you know where
I can get tabs of other songs off Horrorscope.

------------------------------------------------------------------------------
------------------------------------------------------------------------------
------------------------------------------------------------------------------
----------12-12-12------------------------------------------------------------
-3///-7-7---------------------------------------------------------------------
-3///-5-5---------------------------------------------------------------------
intro 1x

-----------|--------|---------------------------------------------------------
-----------|--------|---------------------------------------------------------
-----------|--------|---------------------------------------------------------
-----------|12-12-12|---------------------------------------------------------
-12-x-7-7--|--------|---------------------------------------------------------
-10-x-5-5--|--------|---------------------------------------------------------
verse 17x [________]
00:00 / 00:00
Outros vídeos desta música
Repetir
Outros vídeos desta música
Composição de Jonathan Siebels / Max Collins / Tony Fagenson
246 exibições
    • ½ Tom
    • A
    • Bb
    • B
    • C
    • Db
    • D
    • Eb
    • E
    • F
    • F#
    • G
    • Ab
  • Adicionar à lista

    0 comentários

    Ver todos os comentários

    Conseguiu tocar?

    0 Tocaram 0 Ainda não

    Grave um vídeo tocando On The Roof Again e nos envie!

    Entre para oCifra Club PRO

    Tenha acesso a benefícios exclusivos no App e no Site

    • Chega de anúncios

    • Prioridade de compra em lançamentos

    • Mais recursos no app do Afinador

    • Atendimento Prioritário

    • Descontos nos produtos Cifra Club

    • Ajude a produzir mais conteúdo

    00:00 / 00:00

    Cifra Club Pro

    Aproveite o Cifra Club com benefícios exclusivos e sem anúncios
    Cifra Club Pro
    Aproveite o Cifra Club com benefícios exclusivos e sem anúncios
    OK