Cifra Club

Evergreen

Feeder

Tab de baixo: Principal
Evergteen
Yesterday Went Too Soon

Intro

G-----------------------|
D-----------------------|
A-8--8-8-8-8------------|
E-------------3-3-3-3-3-|

Verse

G-----------------------|
D-----------------------|
A-----------------------|
E-1-1-5-5-3-3-3-3-------|

Pre-chorus

G-------------------------------------------|
D-------------------------------------------|
A---------------------3-3-3-3-3--1-1-1-1-1--|
E-5-5-5-5-5-1-1-1-1-1-----------------------|

Chorus

G-----------------------------|
D-----------------------------|
A-----------------------------|
E-1-1-55-5-3---3-3-3-3-3-3-3--|

Bridge

G----------|
D----------|
A-5-5-5-5--| (Just D repeated alot)
E----------|
00:00 / 00:00
Outros vídeos desta música
Repetir
Outros vídeos desta música
Composição de Grant Nicholas
152 exibições

0 comentários

Ver todos os comentários

Conseguiu tocar?

0 Tocaram 0 Ainda não

Grave um vídeo tocando Evergreen e nos envie!

00:00 / 00:00

Cifra Club Pro

Aproveite o Cifra Club com benefícios exclusivos e sem anúncios
Cifra Club Pro
Aproveite o Cifra Club com benefícios exclusivos e sem anúncios
OK