Cifra Club

Ainda Que a Figueira

Fernandinho

Cifra: Aula-de-guitarra (violão e guitarra)
tom: F#m
[Intro] Em  G  D
        Em  G  D

[Primeira Parte]

Em             D        Am
   Tu és a minha porção
         C            Em
Tu és a minha herança
         D
Tu és o meu socorro
     Am             C  G
Nos dias de tribulação

                D             Am
Mesmo que meus pais me deixem
            C              G
Mesmo que amigos me traiam
                     D
Eu sei que em Seus braços
      Am          C
Eu encontro salvação

[Refrão]

 G                    D
Ainda que a figueira não floresça
 Am                      C
Ainda que a videira não dê o seu fruto
 G                     D
Mesmo que não haja alimento nos campos
        F           C
Eu me alegrarei em Ti

 G                    D
Ainda que a figueira não floresça
 Am                      C
Ainda que a videira não dê o seu fruto
 G                     D
Mesmo que não haja alimento nos campos
        F           C
Eu me alegrarei em Ti

( Em  G  D )

[Primeira Parte]

Em             D        Am
   Tu és a minha porção
         C            Em
Tu és a minha herança
         D
Tu és o meu socorro
     Am             C  G
Nos dias de tribulação

                D             Am
Mesmo que meus pais me deixem
            C              G
Mesmo que amigos me traiam
                     D
Eu sei que em Seus braços
      Am          C
Eu encontro salvação

[Refrão]

 A                    E
Ainda que a figueira não floresça
 Bm                      D
Ainda que a videira não dê o seu fruto
 A                     E
Mesmo que não haja alimento nos campos
        G           D
Eu me alegrarei em Ti

 A                    E
Ainda que a figueira não floresça
 Bm                      D
Ainda que a videira não dê o seu fruto
 A                     E
Mesmo que não haja alimento nos campos
        G           D
Eu me alegrarei em Ti

[Solo] Am  G  D
       Am  G  D
       Am  G  D
       Am  G  D  C

E|---------------------------------------------------|
B|---------------------------------------------------|
G|-----0-0------0-----0--0h2-0-0-0----0-0------------|
D|-0h2------0h2---0h2---------------------4--4--4----|
A|---------------------------------------------------|
E|---------------------------------------------------|

E|---------------------------------------------------|
B|---------------------------------------------------|
G|-----0-0------0-----0--0h2-0-0-0----0-0------------|
D|-0h2------0h2---0h2---------------------4--4--4----|
A|---------------------------------------------------|
E|---------------------------------------------------|

E|---------------------------------------------------|
B|------8--10b12--b12r10---8--7----------------------|
G|--9----------------------------7--7h9--------------|
D|---------------------------------------------------|
A|---------------------------------------------------|
E|---------------------------------------------------|

E|----------------10---------------------------------|
B|------8--10b12-------8--7--------------------------|
G|--9------------------------7--7~-------------------|
D|---------------------------------------------------|
A|---------------------------------------------------|
E|---------------------------------------------------|

E|--------------7--7--7--7-10-10-10-10\--------------|
B|--8--8--8--8--8--8--8--8--8--8--8--8\--------------|
G|--7--7--7--7---------------------------------------|
D|---------------------------------------------------|
A|---------------------------------------------------|
E|---------------------------------------------------|

[Refrão Final]

 G                    D
Ainda que a figueira não floresça
 Am                      C
Ainda que a videira não dê o seu fruto
 G                     D
Mesmo que não haja alimento nos campos
        F           C
Eu me alegrarei em Ti

 G                    D
Ainda que a figueira não floresça
 Am                      C
Ainda que a videira não dê o seu fruto
 G                     D
Mesmo que não haja alimento nos campos
        F           C  G
Eu me alegrarei em Ti
00:00 / 00:00
Outros vídeos desta música
Repetir
Outros vídeos desta música
Composição de Fernandinho
Colaboração e revisão:
  • Vinícius Dias
9.376 exibições
    • ½ Tom
    • Am
    • Bbm
    • Bm
    • Cm
    • C#m
    • Dm
    • Ebm
    • Em
    • Fm
    • F#m
    • Gm
    • G#m
  • Adicionar à lista

    0 comentários

    Ver todos os comentários

    Entre para oCifra Club PRO

    Tenha acesso a benefícios exclusivos no App e no Site

    • Chega de anúncios

    • Prioridade de compra em lançamentos

    • Mais recursos no app do Afinador

    • Atendimento Prioritário

    • Descontos nos produtos Cifra Club

    • Ajude a produzir mais conteúdo

    00:00 / 00:00
    Capítulos
    • Tocando a Música
    • Apresentação / Equipamentos
    • Acordes Introdução
    • Ensinando Ritmo da Introdução
    • Dicas Primeira Parte
    • Tocando Primeira Parte
    • Ensinando Ritmo Primeira Parte
    • Solo da Música - Lento
    • Solo da Música - Parte 1 de 5
    • Solo da Música - Parte 2 de 5
    • Solo da Música - Parte 3 de 5
    • Solo da Música - Parte 4 de 5
    • Solo da Música - Parte 5 de 5
    • Solo da Música - Lento
    • Tocando Refrão
    • Encerramento

    Cifra Club Pro

    Aproveite o Cifra Club com benefícios exclusivos e sem anúncios
    Cifra Club Pro
    Aproveite o Cifra Club com benefícios exclusivos e sem anúncios
    OK