Cifra Club

Aprenda

O Seu Olhar

Fernando Iglesias

Cifra: Principal (violão e guitarra)
tom: C
Intro (Violão 1):

     C    G/B Am       Dm          G
E|-0----0-3-0----0--0-1----------3----3---3|
B|-1--1---3-1--1---1--3--3---3----3--3--3--|
G|-0-0-0--0-2-2-2-2---2-2-2-2-2---0-0-0--0-|
D|--------------------0--------------------|
A|-3------2-0--------------3---------------|
E|-------------------------------3---------|

(Violão 2):

    C9   G/B Am     Dm   Dm/C G

E|-----3---------5-----------7-5-3-1-------|
B|---3--3-----5---5-5--6---6-8-6-5-3-------|
G|--5-5---5--5-5---5--7-7--5-7-5-4-2-------|
D|------------------------7--5-------------|
A|-3-----2-----------5---------------------|
E|---------5-------------8-----------------|

C                G/B Am
Quando meus esforços não valem nada
  Dm        Dm/C       G
E sinto que já fracassei.

Refrão:
        C   G/B     Am
O Seu olhar de mansidão
Am/G        Dm Dm/C    G
Me faz querer   vencer
          C  G/B     Am
E mesmo cego em aflição
Am/G       Dm Dm/C     G
Posso voltar   a ver.

( C   G/B   Am   Dm   G )

C              G/B Am
Quando minha vida corre perigo
Dm         Dm/C       G
Não existe mais solução.

Final:
C                      E
Quero então dizer e gritar bem alto
    F                  Fm
Pra quem quiser ouvir saber!
                  C        G/B      Am
Que existe um Senhor, Ele cuida de mim,
      Am/G     Dm        Dm/C         G
Seu amor é maior que esse mundo atroz
         C
Ele é Jesus!

( C   G/B   Am Am/G  Dm Dm/C  G )

        C   G/B     Am
O Seu olhar de mansidão
Am/G        Dm Dm/C    G
Me faz querer   vencer
          C  G/B     Am
E mesmo cego em aflição
  Am/G             Dm Dm/C
Eu posso então voltar
Dm Dm/C  G     C
(voltar) a ver.
Compositor não encontrado.
Colaboração e revisão:
  • Joel Júnior
  • Thiago saragoça
  • João Silva
22.780 exibições
    • ½ Tom
    • A
    • Bb
    • B
    • C
    • Db
    • D
    • Eb
    • E
    • F
    • F#
    • G
    • Ab
  • Adicionar à lista

    0 comentários

    Ver todos os comentários
    00:00 / 00:00
    Outros vídeos desta música
    Repetir Qualidade Automático
    Outros vídeos desta música
    00:00 / 00:00
    Automático

    Cifra Club Pro

    Aproveite o Cifra Club com benefícios exclusivos e sem anúncios
    Cifra Club Pro
    Aproveite o Cifra Club com benefícios exclusivos e sem anúncios
    OK