Cifra Club

Aprenda

Minha Linda

Forró Boys

Cifra: Principal (violão e guitarra)
tom: E
Intro: A E B E

Solo do teclado:
E|--7--7--7--5--4--0---0----0------4/7--4---|
B|------------------------2----2------------|
G|------------------------------------------|
D|------------------------------------------|
A|------------------------------------------|
E|------------------------------------------|

B|----5--7-----5--------7-------------------|
E|----------4-------7-----------------------|
G|------------------------------------------|
D|------------------------------------------|
A|------------------------------------------|
E|------------------------------------------|

B|----7--5--7--5--7-------------------------|
E|------------------7--4--------------------|
G|------------------------------------------|
D|------------------------------------------|
A|------------------------------------------|
E|------------------------------------------|

E|--7--7--7--5--4--0---0----0------4/7--4---|
B|------------------------2----2------------|
G|------------------------------------------|
D|------------------------------------------|
A|------------------------------------------|
E|------------------------------------------|

E|---4--2--4--2--4--7--11--9--7-------------|
G|------------------------------------------|
D|------------------------------------------|
A|------------------------------------------|
E|------------------------------------------|

         E
Hoje eu vim te dizer
       B
Que eu me enganei
        A
Que seu amor 
        E         B
Que eu tanto busquei
    E
Te deixei partir 
                 B
Porque eu estava equivocado
       A            E       B
Minha linda, volta pro meu lado
D                 A
Sinto tanto sua falta
     E           B
Você é parte de mim
D               A
Volte logo meu anjo
            E
Preciso de você
                  F#
Não dá pra viver assim
     A      E      B
Não dá não dá não dá
       C#m      A
Minha linda te quero
E                       B
Como eu nunca quis ninguém
       C#m         A
Seu jeitinho seu cheiro
    E                    B
São únicos ninguém mais tem
       C#m     A
Minha linda você
   E                   B
Coloriu o meu mundo cinza 
       C#m       A
Minha linda vem logo
 E               B
Diga que me ama ainda


Repete Solo Do Teclado (2x)

         E
Hoje eu vim te dizer
       B
Que eu me enganei
        A
Que seu amor 
        E         B
Que eu tanto busquei
    E
Te deixei partir 
                 B
Porque eu estava equivocado
       A            E       B
Minha linda, volta pro meu lado
D                 A
Sinto tanto sua falta
     E           B
Você é parte de mim
D               A
Volte logo meu anjo
            E
Preciso de você
                  F#
Não dá pra viver assim
     A      E      B
Não dá não dá não dá
       C#m      A
Minha linda te quero
E                       B
Como eu nunca quis ninguém
       C#m         A
Seu jeitinho seu cheiro
    E                    B
São únicos ninguém mais tem
       C#m     A
Minha linda você
   E                   B
Coloriu o meu mundo cinza 
       C#m       A
Minha linda vem logo
 E               B
Diga que me ama ainda
Compositor não encontrado.
Colaboração e revisão:
  • Gabriel
12.018 exibições
    • ½ Tom
    • A
    • Bb
    • B
    • C
    • Db
    • D
    • Eb
    • E
    • F
    • F#
    • G
    • Ab
  • Adicionar à lista

    0 comentários

    Ver todos os comentários

    Conseguiu tocar?

    1 Tocaram 1 Ainda não

    Grave um vídeo tocando Minha Linda e nos envie!

    00:00 / 00:00
    Outros vídeos desta música
    Repetir Qualidade Automático
    Outros vídeos desta música
    00:00 / 00:00
    Automático

    Cifra Club Pro

    Aproveite o Cifra Club com benefícios exclusivos e sem anúncios
    Cifra Club Pro
    Aproveite o Cifra Club com benefícios exclusivos e sem anúncios
    OK