Cifra Club

Black Friday Cifra Club

Sunburn

Fuel

Cifra: Principal (violão e guitarra)
tom: G
e|--------------------------------0---|     
B|----3-3---2-----3--2------3-3-3---2-|     
G|----0---0-2------2--2-2---0-------2-|Introducao
D|----2-----2-0h2---2--2----2-------2-| fazer 
A|----2-----0---------------2-------0-|2 vezes
E|--0-0---------------------0---------|
(na 2ª vez o cantor vai falar)
The sky was dark this morning
(depois do verso fazer assim)

e|--------------------------------0--------------|     
B|----3-3---2-----3--2------3-3-3---2----3--2----|     
G|----0---0-2------2--2-2---0-------2-----2--2-2-|
D|----2-----2-0h2---2--2----2-------2-0h2--2--2--|  
A|----2-----0---------------2-------0------------|
E|--0-0---------------------0--------------------|
(REPETIR, PARAR NO PRE-REFRAO)


Not a bird in the trees
And silence hung suspicious and anxious
Like a blanket covered scream

(PRE-REFRAO)

e|-----------------|
B|--------------0--|     
G|------0----------|
D|--------0---0----|  
A|--2h4-----2------|
E|-----------------|

You were gone
You were not there for me

(REFRAO)
(nessa parte, somente no que eu vou escrever..
And I(1º verso do refrao) tocar isso, depois fazer o ritmo)

e|-----------------|
B|-----------------|     
G|------0----------|
D|--------0--------|  
A|--2h4------------|
E|-----------------|

(nas cifras entre "(aspas) tocar a cifra de pois dedilhar assim... exatamente assim nao importa o acorde)

e|--0--------0-------|
B|-----3--------3----|
G|--------2--------2-|
D|-------------------|
A|-------------------|
E|-------------------|

         C                 D5
And I cursed the sky and begged the sun to
E         C D5
Fall all over me   
                      Am
This life's not for living, baby
  Am7        D   
Living ain't free
                E       C     D5           
If I can't find my way back to me

(NAO E O PRE-REFRAO MAIS TEM QUE TOCAR A MESMA COISA)
Let the sun fall down over me
Let the sun fall down

(nessa parte, somente no que eu vou escrever..
And I(1º verso ) tocar isso, depois fazer o ritmo)

e|-------------------|
B|--------------0----|     
G|------0------------|(deixando soar)
D|--------0---0------|  
A|--2h4-----2--------|
E|-------------------|

All my friends are searching

(tocar isso apos esse verso "All my friends are searching")
e|--------------------------------0--------------|     
B|----3-3---2-----3--2------3-3-3---2----3--2----|     
G|----0---0-2------2--2-2---0-------2-----2--2-2-|
D|----2-----2-0h2---2--2----2-------2-0h2--2--2--|  
A|----2-----0---------------2-------0------------|
E|--0-0---------------------0--------------------|
Quiet, desperately
Look into their eyes you'll see the faithless crying
Save me, save me, save me

(tocar a mesma coisa do pre-refrao)
What are they to feel
Who are they to be

(tocar igual ao refrao)
What am I to do with, do with me, just let the sun
Fall over me
This life's not living, baby
Living ain't free
If I can't find my way back to me

(tocar isso )
e|--------------------------------0--------------|     
B|----3-3---2-----3--2------3-3-3---2----3--2----|     
G|----0---0-2------2--2-2---0-------2-----2--2-2-|
D|----2-----2-0h2---2--2----2-------2-0h2--2--2--|  
A|----2-----0---------------2-------0------------|
E|--0-0---------------------0--------------------|

Let the sun fall down over me
Let the sun fall down

      C          D5
'Til my eyes cry out
'Til my head is free from doubt
'Til my lungs sigh right out
'Til I'm wiser

(solo)

(nessa parte tocar o refrao, a parte abaixo)

Let the sun
Fall over me
This life's not living, baby
Living ain't free
If I can't find my way back to me
Let the sun fall down

Let the sun
Fall over me
This life's not living, baby
Living ain't free
If I can't find my way back to me

e|-------------------|
B|--------------0----|     
G|------0------------|(deixando soar apenas 
D|--------0---0------|  no ultimo verso)
A|--2h4-----2--------|
E|-------------------|
Let the sun fall down over me
Let the sun fall down over me
Let the sun fall down over me
Let the sun fall down over me
00:00 / 00:00
Outros vídeos desta música
Repetir
Outros vídeos desta música
Composição de Carl Bell
Colaboração e revisão:
  • Lucas Tachibana
3.712 exibições
    • ½ Tom
    • A
    • Bb
    • B
    • C
    • Db
    • D
    • Eb
    • E
    • F
    • F#
    • G
    • Ab
  • Adicionar à lista

    0 comentários

    Ver todos os comentários

    Conseguiu tocar?

    0 Tocaram 1 Ainda não

    Grave um vídeo tocando Sunburn e nos envie!

    Entre para oCifra Club PRO

    Tenha acesso a benefícios exclusivos no App e no Site

    • Chega de anúncios

    • Prioridade de compra em lançamentos

    • Mais recursos no app do Afinador

    • Atendimento Prioritário

    • Descontos nos produtos Cifra Club

    • Ajude a produzir mais conteúdo

    00:00 / 00:00

    Cifra Club Pro

    Aproveite o Cifra Club com benefícios exclusivos e sem anúncios
    Cifra Club Pro
    Aproveite o Cifra Club com benefícios exclusivos e sem anúncios
    OK