Cifra Club

Caravana

Geraldo Azevedo

Cifra: Principal
exibições 80.383
Tom: C
(Intro) 
                C6       D6       C6         E4/B     G4/C     E/B

E|-----------------5--------7--------5-----------5--------3--------4--------|
B|---------------5---5----7---7----5---5-------5---5----3---3----5---5------|
G|-------------5--------7--------5--------5--4--------5--------4--------4---|
D|--6--7--9-----------------------------------------------------------------|
A|--------------------------------------------------------------------------|
E|--------------------------------------------------------------------------|
 
    Eb9/A     B4       Eb9/A      D9/G#     A4       D9/G#

E|--------------------------------------------------------------------------|
B|------6--------7--------6-----------5--------5--------5-------------------|
G|----8---8----9---9----8---8-------7---7----7---7----7---7-----------------|
D|--7--------9--------7--------7--6--------7--------6-----------------------|
A|--------------------------------------------------------------------------|
E|--------------------------------------------------------------------------|


Repete a introdução durante os versos seguindo os acordes

   
C6         D6        C6      E4/B
Corra, não pare, não pense demais 
  G4/C        E/B       Eb9/A
Repare essas velas no cais 
      D9/G#        A4     D9/G#
Que a vida é ciga.......na 


Passagem
E|------------------------------------------------|
B|------------------------------------------------|
G|------------------------------------------------|
D|--6---7---9-------------------------------------|
A|------------------------------------------------|
E|------------------------------------------------|

                    C6
É    ca       ra    vana 
  D6       C6      E4/B
É pedra de gelo ao sol 
  G4/C         E/B        Eb9/A
Degelou teus olhos tão sós 
    D9/G#        A4   D9/G#
Num mar de água cla...ra 


Passagem
E|------------------------------------------------|
B|------------------------------------------------|
G|------------------------------------------------|
D|--7---5---2-------------------------------------|
A|------------------------------------------------|
E|------------------------------------------------|


Am    Dm       Am     E7     Am
La    lalala  lala   la      uê 
      Dm       Am     E7     Am
La    lalala  lala   la      uê 
   Dm      Am   E7  Am     Dm     Am    E7   Am
La lalala lala la  uê lalauê lalauê lalauê   la 
 
Am Dm Am E7 Am (2x)
Acordes para:

    0 comentários

      mostrar mais comentários

      Conseguiu tocar?

      3tocaram2ainda não

      Grave um vídeo tocando Caravana e mande pra gente!

      00:00 / 00:00
      outros vídeos desta música
      repetirqualidadeautomática
      Outro vídeos desta música
        00:00 / 00:00
        automática
        OK