Cifra Club

Templars of Steel

HammerFall

Tab de baixo: Principal
BASS TAB (4-STRING-BASS)

Tune down 1/2 step (Eb,Ab,Db,Gb)

Pre-Verse/Verse
Fig1
Gb|------------------------------------------------|
Db|------------------------------------------------|
Ab|-7-7---------------8-5-7-7----------------------|
Eb|-----0--0-0-0--0-0---------0--0-0-0--0-0-0--0-0-|
Fig2
Gb|-------------------------------|
Db|-------------------------------|
Ab|-7-7---------------8-7-5-7-5-3-|
Eb|-----0--0-0-0--0-0-------------|

repeat Fig1

Fig3
Gb|---------------------------------|
Db|---------------------------------|
Ab|-7-7---------------8-7-5-7-5-3-2-|
Eb|-----0--0-0-0--0-0---------------|


Pre-Chorus
Gb|-------------------------------------------------------------------------------------|
Db|-------------------------------------------------------------------------------------|
Ab|-------------------------------------------------------------------------------------|
Eb|-5--5-5-5--5-5-1--1-1-1--1-1-5--5-5-5--5-5-5*--8--8-8-8--8-8-3--3-3-3---3-3-7-7-8-10-|


Chorus
Fig1
Gb|---------------------------|
Db|---------------------------|
Ab|-7-7---3-3---10-10---5--5--|
Eb|---------------------------|
Fig2
Gb|-----------------------------------------------|
Db|-----------------------------------------------|
Ab|-7-7---3-3---10--10-10-10--10-10-5--5-5-5--5-5-|
Eb|-----------------------------------------------|

repeat Fig1

Fig3
Gb|----------------|
Db|----------------|
Ab|-7*---3*---5*---|
Eb|----------------|


Interlude
Fig1
Gb|---------------------------------------------------------|
Db|---------------------------------------------------------|
Ab|---------------------------------------------------------|
Eb|-7--7-7-7--7-7-7--7-7-7--7-7-3--3-3-3-3/5---8-7-10-9-7-6-|
Fig2
Gb|-----------------------------------------------------------|
Db|-----------------------------------------------------------|
Ab|-----------------------------------------------------------|
Eb|-7--7-7-7--7-7-7--7-7-7--7-7-10--10-10-10-10\3*---8-7-8-10-|

repeat Fig1

Fig3
Gb|-------------------------------------------------------------|
Db|-------------------------------------------------------------|
Ab|-------------------------------------------------------------|
Eb|-7--7-7-7--7-7-7--7-7-7--7-7-10--10-10-10-10\3*---6-8-7-8-10-|

then                      x3
Gb|----------------------|  |-----------------|
Db|----------------------|  |-----------------|
Ab|----------------------|  |-----------------|
Eb|-9*---7*---10*---8*---|  |-9*---7*---10*---|


Chorus2
Fig1
Gb|-----------------------------|
Db|-----------------------------|
Ab|-10-10---6-6---13-13---8--8--|
Eb|-----------------------------|
Fig2
Gb|-------------------------------------------------|
Db|-------------------------------------------------|
Ab|-10-10---6-6---13--13-13-13--13-13-8--8-8-8--8-8-|
Eb|-------------------------------------------------|

repeat Fig1

Fig3                 x2
Gb|-----------------|
Db|-----------------|
Ab|-10*---6*---8*---|
Eb|-----------------|



structure:
Intro (no bass)
Pre-Verse
Verse
Pre-Chorus
Chorus
Pre-Verse
Verse
Pre-Chorus
Chorus
Chorus Fig3
Interlude
Chorus
Chorus2

_______________________________________________________
Contribuição: Carlos Duarte Quedevez(steve@intercol.com.br)
00:00 / 00:00
Outros vídeos desta música
Repetir
Outros vídeos desta música
Composição de Joacim Cans / Oscar Dronjak
1.839 exibições

0 comentários

Ver todos os comentários

Conseguiu tocar?

0 Tocaram 0 Ainda não

Grave um vídeo tocando Templars of Steel e nos envie!

00:00 / 00:00

Cifra Club Pro

Aproveite o Cifra Club com benefícios exclusivos e sem anúncios
Cifra Club Pro
Aproveite o Cifra Club com benefícios exclusivos e sem anúncios
OK