Cifra Club

Aprenda

A Aspiração da Alma

Harpa Cristã

Cifra: Principal (violão e guitarra)
Tom: Db
E|-----------|-4---------|---------4-6-|-8-------6-|-4-------8--|-11------8-6-|
B|---------4-|---------6-|-4-------4-6-|-4---------|------------|---------4---|
G|---------5-|-5-------6-|-5-----------|---------6-|-5-------8--|-8-----------|
D|---------6-|---------6-|-6-------6---|-6-------5-|-6----------|-10------6-5-|
A|-----------|-6---------|-----------4-|-6-------6-|---------11-|-11----------|
E|---------4-|-4-------4-|-4-------8---|-----------|-4----------|---------4-6-|

E|-4-------8-|---------11-|-8----------|-4-------8-|-9-------8-|-6-------8-|
B|-4-------4-|-11---------|---------11-|-1-------7-|-6-------4-|-4-------4-|
G|-----------|-0-------0--|-8-------0--|-1---------|-----------|-----------|
D|-6-------6-|-13------13-|---------11-|-3-------6-|-6-------6-|-5-------6-|
A|-----------|------------|-11---------|---------6-|-----------|-6---------|
E|-8-------4-|-11------11-|---------11-|-----------|-9-------4-|---------4-|

E|-----------6-|-8-------6-|-4--------|
B|-----6---9-6-|-----------|----------|
G|-8---6---8---|-8-------6-|-5--------|
D|-6-------6---|-6-------5-|-6--------|
A|-------------|-6-------6-|----------|
E|-8---9---8-9-|-----------|-4--------|
Composição de Paulo Leivas Macalão
Colaboração e revisão:
  • Helon Oliveira
10.574 exibições
    • ½ Tom
    • A
    • Bb
    • B
    • C
    • Db
    • D
    • Eb
    • E
    • F
    • F#
    • G
    • Ab
  • Adicionar à lista

    0 comentários

    Mostrar mais comentários
    00:00 / 00:00
    outros vídeos desta música
    repetir qualidade Automático
    Outros vídeos desta música
    00:00 / 00:00
    Automático

    Cifra Club Pro

    Aproveite o Cifra Club com benefícios exclusivos e sem anúncios
    7 dias grátis
    Cifra Club Pro
    Aproveite o Cifra Club com benefícios exclusivos e sem anúncios
    7 dias grátis
    OK